top separator

Home

Forum

What's New

Submit a Tab

FAQ

Links

Contact Us

Link to Us

MetalTabs.com logo

Bands

0-9

A

B

C

D

E

F

G

H

I

J

K

L

M

N

O

P

Q

R

S

T

U

V

W

X

Y

Z

Search

What

Where
 

Paracoccidioidomicosisproctitissarcomucosis - "Toward The Apocalipsex (Intro)" Guitar Tab

Plain Text Version
More Paracoccidioidomicosisproctitissarcomucosis Tabs

Hits: 2087
Rated: 5.00 out of 5 (1 vote)
Updated: 2007-09-09 02:43:52

 

By:

goatman

sendpm.gif

email.gif

Important note
This tab is available online because we obtained explicit permission from Paracoccidioidomicosisproctitissarcomucosis or their label.


#----------------------------------PLEASE NOTE---------------------------------#
#This file is the author's own work and represents their interpretation of the #
#song. You may only use this file for private study, scholarship, or research. #
#Unless specified otherwise, this is NOT an official tab from the band members.#
#------------------------------------------------------------------------------#

  Visit MetalTabs.com for more metal tablature
  
Band:(Paracoccidioidomicosisproctitissarcomucosis)
Album: (Satyriasis And Nymphomania)
Song:  (Toward The Apocalipsex (Intro))

Copyright (c)  (AMERICAN LINE PRODUCTIONS) (2002)

Transcribed By: (GOATMAN)
Email:          (VIRUS010891@AOL.COM)



Tuning: G C F Bb D Gb             (FINGERPICKED THROUGHTOUT)
                           x4                         x4
|------------0-----------0--|--------------------------|--------------
|.--------0-----------0----.|.----------0-----------0-.|.----------0--
|------3--------------------|--------7-----------7-----|--------4-----
|-----------------3---------|-----8-----------8--------|-----6--------
|.-------------------------.|.------------------------.|.-------------
|--4-----------4------------|--4-----------4-----------|--4-----------

             x2                         x2                            x2
--------------|--------------------------|-----------0-----------0-----|
-----------0-.|.----------0-----------0-.|.-------0-----------0-------.|
--------4-----|--------4-----------4-----|-----3-----------3-----------|
-----6--------|-----5-----------5--------|-----------------------------|
-------------.|.------------------------.|.---------------------------.|
--4-----------|--4-----------4-----------|--4-----------4--------------|

                          x2                         x2
|--------------------------|--------------------------|
|.----------0-----------0-.|.----------0-----------0-.|
|--------7-----------7-----|--------4-----------4-----|
|-----8-----------8--------|-----6-----------6--------|
|.------------------------.|.------------------------.|
|--4-----------4-----------|--4-----------4-----------|

                          x2                         x2
|--------------------------|--------------------------|------------------------
|.----------0-----------0-.|.----------0-----------0-.|-------6-----------6----
|--------4-----------4-----|--------7-----------7-----|----6-----6-----6-----6-
|-----5-----------5--------|-----8-----------8--------|------------------------
|.------------------------.|.------------------------.|------------------------
|--4-----------4-----------|--4-----------4-----------|-4-----------4----------

                                                   x2
-------------------------|--------------------------|------------------------
-------5-----------5-----|.----------0-----------0-.|-------6-----------6----
----5-----5-----5-----5--|--------7-----------7-----|----6-----6-----6-----6-
-------------------------|-----8-----------8--------|------------------------
-------------------------|.------------------------.|------------------------
-4-----------4-----------|--4-----------4-----------|-4-----------4----------


-------------------------------------------------|--------------------------
-------5-----------5--------------0-----------0--|.----------0-----------0--
----5-----5-----5-----5--------7-----------7-----|--------4-----------4-----
----------------------------8-----------8--------|-----6-----------6--------
-------------------------------------------------|.-------------------------
-4-----------4-----------4-----------4-----------|--4-----------4-----------

                        x2
-------------------------|----------0-----------0-----------0-----------5----
----------0-----------0-.|-------0-----------0-----------0-----------0-------
-------4-----------4-----|----3-----------3-----------3-----------3----------
----5-----------5--------|---------------------------------------------------
------------------------.|---------------------------------------------------
-4-----------4-----------|-4-----------4-----------4-----------4-------------

                                                                           x2
----------0-----------5-----------0-----------0--|--------------------------|
-------0-----------0-----------0-----------0-----|.----------0-----------0-.|
----3-----------3-----------3-----------3--------|--------7-----------7-----|
-------------------------------------------------|-----8-----------8--------|
-------------------------------------------------|.------------------------.|
-4-----------4-----------4-----------4-----------|--4-----------4-----------|

                          x2                         x2
|--------------------------|--------------------------|----------0-----------0-
|.----------0-----------0-.|.----------0-----------0-.|-------0-----------0----
|--------4-----------4-----|--------4-----------4-----|----3-----------3-------
|-----6-----------6--------|-----5-----------5--------|------------------------
|.------------------------.|.------------------------.|------------------------
|--4-----------4-----------|--4-----------4-----------|-4-----------4----------

                                                   x3
----------5-----------0--|-----------------------5--|----------------------0-
-------0-----------0-----|.----------0-------------.|----------0-------------
----3-----------3--------|--------7-----------7-----|-------7-----------7----
-------------------------|-----8-----------8--------|----8-----------8-------
-------------------------|.------------------------.|------------------------
-4-----------4-----------|--4-----------4-----------|-4-----------4----------

  Visit MetalTabs.com for more metal tablature

bottom separator

Contact Us | Privacy Policy | Disclaimer | Legal Notice
Copyright © 2001-2014 MetalTabs.com. All Rights Reserved.