top separator

Home

Forum

What's New

Submit a Tab

FAQ

Links

Contact Us

Link to Us

MetalTabs.com logo

Bands

0-9

A

B

C

D

E

F

G

H

I

J

K

L

M

N

O

P

Q

R

S

T

U

V

W

X

Y

Z

Search

What

Where
 

S.M.E.S. - "Pro-Zak" Guitar Tab

Plain Text Version
More S.M.E.S. Tabs

Hits: 1528
Updated: 2007-09-09 02:42:40

 

By:

goatman

sendpm.gif

email.gif

Important note
We did our best to reach S.M.E.S. and ask for their permission to publish this tab. Unfortunately they did not respond to our requests or we could not find a way to contact them. This tab is available online until S.M.E.S. tells us to take it down.


#----------------------------------PLEASE NOTE---------------------------------#
#This file is the author's own work and represents their interpretation of the #
#song. You may only use this file for private study, scholarship, or research. #
#Unless specified otherwise, this is NOT an official tab from the band members.#
#------------------------------------------------------------------------------#

  Visit MetalTabs.com for more metal tablature
  
Band:  (S.M.E.S.)
Album: (THE GOOD, THE BAD AND ME)
Song:  (PRO ZAK)

Copyright (c)  (BLACK HOLE PRODUCTIONS)

Transcribed By: (GOATMAN)
Email:          (VIRUS010891@AOL.COM)


.  - palm mute           r  - one beat rest


Tuning: G standard

:56               x8                  x4                 x8                  x4
|------------------|-------------------|------------------|-------------------|
|.----------------.|.-----------------.|.----------------.|.-----------------.|
|------------------|-------------------|------------------|-------------------|
|------------------|-------------------|------------------|-------------------|
|.-6--2-4-2-4-6-7-.|.-7-7-7-7-5-7-5-7-.|.-6--2-4-2-4-6-7-.|.-7-7-7-7-5-7-5-7-.|
|--4--0-2-0-2-4-5--|--5-5-5-5-3-5-3-5--|--4--0-2-0-2-4-5--|--5-5-5-5-3-5-3-5--|
   .  . . . . . .     . . . . . . . .     .  . . . . . .     . . . . . . . .
                  x8                 x8                  x4                 x8
|------------------|------------------|-------------------|------------------|
|.----------------.|.----------------.|.-----------------.|.----------------.|
|------------------|------------------|-------------------|------------------|
|------------------|------------------|-------------------|------------------|
|.----------------.|.-6--2-4-2-4-6-7-.|.-7-7-7-7-5-7-5-7-.|.-6--2-4-2-4-6-7-.|
|--4--0-2-0-2-4-5--|--4--0-2-0-2-4-5--|--5-5-5-5-3-5-3-5--|--4--0-2-0-2-4-5--|
                      .  . . . . . .     . . . . . . . .     .  . . . . . .
                   x4              x4                 x4                  x4
|-------------------|---------------|------------------|-------------------|
|.-----------------.|.-------------.|.----------------.|.-----------------.|
|-------------------|---------------|------------------|-------------------|
|-------------------|---------------|------------------|-------------------|
|.-7-7-7-7-5-7-5-7-.|.--r--r--r--r-.|.-6--2-4-2-4-6-7-.|.-7-7-7-7-5-7-5-7-.|
|--5-5-5-5-3-5-3-5--|---------------|--4--0-2-0-2-4-5--|--5-5-5-5-3-5-3-5--|
   . . . . . . . .                     .  . . . . . .     . . . . . . . .
                  x8                  x4                 x8                  x4
|------------------|-------------------|------------------|-------------------|
|.----------------.|.-----------------.|.----------------.|.-----------------.|
|------------------|-------------------|------------------|-------------------|
|------------------|-------------------|------------------|-------------------|
|.-6--2-4-2-4-6-7-.|.-7-7-7-7-5-7-5-7-.|.-6--2-4-2-4-6-7-.|.-7-7-7-7-5-7-5-7-.|
|--4--0-2-0-2-4-5--|--5-5-5-5-3-5-3-5--|--4--0-2-0-2-4-5--|--5-5-5-5-3-5-3-5--|
   .  . . . . . .     . . . . . . . .     .  . . . . . .     . . . . . . . .
                  x3
|------------------|--------------------------
|.----------------.|--------------------------
|------------------|--------------------------
|------------------|--------------------------
|.-6--2-4-2-4-6-7-.|--6--2--4--2--4--6--4--2--
|--4--0-2-0-2-4-5--|--4--0--2--0--2--4--2--0--
   .  . . . . . .     .  .  .  .  .  .  .  .

  Visit MetalTabs.com for more metal tablature

bottom separator

Contact Us | Privacy Policy | Disclaimer | Legal Notice
Copyright © 2001-2014 MetalTabs.com. All Rights Reserved.