top separator

Home

Forum

What's New

Submit a Tab

FAQ

Links

Contact Us

Link to Us

MuSpy.com

MetalTabs.com logo

Bands

0-9

A

B

C

D

E

F

G

H

I

J

K

L

M

N

O

P

Q

R

S

T

U

V

W

X

Y

Z

Search

What

Where
 

Intense Hammer Rage - "Choking On A Chocolate Log" Guitar Tab

Plain Text Version
More Intense Hammer Rage Tabs

Hits: 1355
Updated: 2007-09-09 02:42:24

 

By:

goatman

sendpm.gif

email.gif

Important note
This tab is available online because we obtained explicit permission from Intense Hammer Rage or their label.


#----------------------------------PLEASE NOTE---------------------------------#
#This file is the author's own work and represents their interpretation of the #
#song. You may only use this file for private study, scholarship, or research. #
#Unless specified otherwise, this is NOT an official tab from the band members.#
#------------------------------------------------------------------------------#

  Visit MetalTabs.com for more metal tablature
  
Band:  (INTENSE HAMMER RAGE)
Album: (AVAGOYAMUGS)
Song:  (CHOKING ON A CHOCOLATE LOG)

Copyright (c)  (RAZORBACK RECORDS) (2001)

Transcribed By: (GOATMAN)
Email:          (VIRUS010891@AOL.COM)


.  - palm mute           "  - tremolo       ()  - sustained note/chord

<>  - pinch harmonic     r  - one beat rest

Tuning: F standard

-------------------------------------------------|------------------
-------------------------------------------------|.-----------------
-------------------------------------------------|------------------
-------------------------------------------------|------------------
-6-7-5-6-7-5-7-6-5-6-7-5-6-7-5-6-7-6-7-5-6-5-7-6-|.-6--7--4--5------
-4-5-3-4-5-3-5-4-3-4-5-3-4-5-3-4-5-4-5-3-4-3-5-4-|--4--5--2--3------
 . . . . . . . . . . . . . . . . . . . . . . . .    .  .  .  .
                                                     x3                 x4
------------------------------------------------------|------------------|
-----------------------------------------------------.|.----------------.|
----------4-------------------------------------------|------------------|
----------4-------------------------------------------|------------------|
-6--5--7-----5-4-3-5-4-3-6-5--4--5--3--4--5--4--6--5-.|.-655555555444-4-.|
-4--3--5-----3-2-1-3-2-1-4-3--2--3--1--2--3--2--4--3--|--433333333222-2--|
 .  .  .     . . . . . . . .  .  .  .  .  .  .  .  .     ............ .
                                    x3                                   x2
-----------------|-------------------|----------------|-------------------|
-66666655665566--|.-----------------.|-66666655665566-|.-----------------.|
-44444433443344--|-------------------|-44444433443344-|-------------------|
-33333322332233--|-------------------|-33333322332233-|-------------------|
-----------------|.-3-4-4-3-4-5-3-4-.|----------------|.-3-4-4-3-4-5-3-4-.|
-----------------|--1-2-2-1-2-3-1-2--|----------------|--1-2-2-1-2-3-1-2--|
                    . . . . . . . .                      . . . . . . . .

---------------------------------------------------------------------------
---------------------------------------------------------------------------
---------------------------------------------------------------------------
---------------------------------------------------------------------------
-2--r--2-2--r--2--r--2-2-2-2-2-2--r--2-2--r--2--r--2-2-2-2-2-2--r--2222222-
-0-----0-0-----0-----0-0-0-0-0-0-----0-0-----0-----0-0-0-0-0-0-----0000000-
 .     . .     .     . . . . . .     . .     .     . . . . . .     .......
                                                                              x3
-----------------------------------------------------------|-------------------|
-------------------------------------------66666655665566--|.-----------------.|
-------------------------------------------44444433443344--|-------------------|
-------------------------------------------33333322332233--|-------------------|
-3--2-2-2--2--3--2-2-2-2-2-2--3--2-2-2--2------------------|.-3-4-4-3-4-5-3-4-.|
-1--0-0-0--0--1--0-0-0-0-0-0--1--0-0-0--0------------------|--1-2-2-1-2-3-1-2--|
 .  . . .  .  .  . . . . . .  .  . . .  .                     . . . . . . . .
                                   x4
|-----------------------------------|-------------------------------------------
|.---------------------------------.|-------------------------------------------
|-----------------------------------|-------------------------------------------
|--------------------------------3--|-------------------------------------------
|.-3-4-4-3--3--3-4-4-3-4-3-4-5-4-3-.|---------3----------3----------3----------3
|--1-2-2-1--1--1-2-2-1-2-1-2-3-2----|-4-4--0--1--4-4--0--1--4-4--0--1--4-4--0--1
   . . . .  .  . . . . . . . . .           .  .       .  .       .  .       .  .
                                       x2
---------------|------------------------|-----------------|------------------
---------------|.----------------------.|-----------------|.-----------------
---------------|------------------------|-----------------|------------------
---------------|------------------------|-----------------|------------------
-6--r----3--5--|.---3-66223366-2-3-4-5-.|---3-66223366-r--|.-2-3-3-4-2-3-3-4-
-4-----0-1--3--|--0-1-44001144-0-1-2-3--|-0-1-44001144----|--0-1-1-2-0-1-1-2-
 .     . .  .     . .          . . . .    . .                . . . . . . . .
                     x2                                      x2
----------------------|---------------------------------------|
---------------------.|.-------------------------------------.|
----------------------|---------------------------------------|
----------------------|---------------------5--4--------------|
-2-3-4-2-------(8)"/-.|.-2-3-4-2-3-4-2-3-4--3--2--5--4--6--5-.|
-0-1-2-0-(8)"/--------|--0-1-2-0-1-2-0-1-2--------3--2--4--3--|
 . . . .                 . . . . . . . . .  .  .  .  .  .  .
                                       x2                                     x2
|---------------------------------------|--------------------------------------|
|.-------------------------------------.|.------------------------------------.|
|---------------------------------------|--------------------------------------|
|---------------------------------------|---------------------5--4-------------|
|.-2-3-3-4-2-3-3-4-2-3-4-2-------(8)"/-.|.-2-3-4-2-3-4-2-3-4--3--2--5--4--6--5.|
|--0-1-1-2-0-1-1-2-0-1-2-0-(8)"/--------|--0-1-2-0-1-2-0-1-2--------3--2--4--3-|
   . . . . . . . . . . . .                 . . . . . . . . .  .  .  .  .  .  .
                   x7
|-------------------|--------------------------------------------------------
|.-----------------.|--------------------------------------------------------
|-------------------|--------------------------------------------------------
|-------------------|--------------------------------------------------------
|.-4-3-2-3-3-4-2-3-.|-4-3-2-3-3-4-5-4--2--r--r--r--r--r--r--2-2--2--r--r--r--
|--2-1-0-1-1-2-0-1--|-2-1-0-1-1-2-3-2--0--------------------0-0--0-----------
   . . . . . . . .    . . . . . . . .  .                    . .  .
                                                        x5
------------------------------------|--------------------|-----------
------------------------------------|.------------------.|-----------
------------------------------------|--------------------|-----------
------------------------------------|--------------------|-----------
-r--r--r--2-2--2--r--(2)---3-3-3-2--|.-4433223333442233-.|-44332233--
----------0-0--0-----(0)---1-1-1-0--|--2211001111220011--|-22110011--
          . .  .           . . . .     ................    ........
                                                         x3                  x3
-------------------------------------|--------------------|-------------------|
-------------------------------------|.------------------.|.------------------|
-------------------------------------|--------------------|-------------------|
-------------------------------------|--------------------|-------------------|
-r--r--r--r--r--r--r--r--r--r--r--r--|.-3344223333442233-.|.-4-3-2-3-3-4-2-3--|
-------------------------------------|--1122001111220011--|--2-1-0-1-1-2-0-1--|
                                        ................     . . . . . . . .
                                                                              x3
---------------------------------------------|---------------------------------|
---------------------------------------------|.--------------------------------|
---------------------------------------------|---------------------------------|
---------------------------------------------|---------------------------------|
-4-3-2-3-3-4-5-4--3--r--r--r--r--r--3-3-3-3--|.4-3-3-3-5-4-4-4-4-3-3-3-4-3-5-4-|
-2-1-0-1-1-2-3-2--1-----------------1-1-1-1--|-2-1-1-1-3-2-2-2-2-1-1-1-2-1-3-2-|
 . . . . . . . .  .                 . . . .    . . . . . . . . . . . . . . . .
                                                x8
----------------------------|--------------------|----------------------------
----------------------------|.------------------.|----------------------------
----------------------------|--------------------|----------------------------
----------------------------|--------------------|----------------------------
-3--r--4-3--r--3--r---4-3-2-|.-3344223333442233-.|2--r--2-2--r--2--r--5-4-2-4-
-1-----2-1-----1------2-1-0-|--1122001111220011--|0-----0-0-----0-----3-2-0-2-
 .     . .     .      . . .     ................  .     . .     .     . . . .

-----------------------------------------------------------------------------
-----------------------------------------------------------------------------
-----------------------------------------------------------------------------
-----------------------------------------------------------------------------
-3-2--r--2-2--r--2--r--2-2-2-2-2-2--r--22222222--3--2-2-2--2--3--2-2-2-2-2-2-3
-1-0-----0-0-----0-----0-0-0-0-0-0-----00000000--1--0-0-0--0--1--0-0-0-0-0-0-1
 . .     . .     .     . . . . . .     ........  .  . . .  .  .  . . . . . . .
                                              x3
---------------------------|-------------------|-------------
-----------66666655665566--|.-----------------.|-------------
-----------44444433443344--|-------------------|-------<9>~--
-----------33333322332233--|-------------------|----<8>------
-2-2-2--2------------------|.-4-5-3-4-5-4-5-3-.|-<7>---------
-0-0-0--0------------------|--2-3-1-2-3-2-3-1--|-------------
 . . .  .                     . . . . . . . .

  Visit MetalTabs.com for more metal tablature

bottom separator

Contact Us | Privacy Policy | Disclaimer | Legal Notice
Copyright © 2001-2014 MetalTabs.com. All Rights Reserved.