top separator

Home

Forum

What's New

Submit a Tab

FAQ

Links

Contact Us

Link to Us

MuSpy.com

MetalTabs.com logo

Bands

0-9

A

B

C

D

E

F

G

H

I

J

K

L

M

N

O

P

Q

R

S

T

U

V

W

X

Y

Z

Search

What

Where
 

Akercocke - "Axiom" Guitar Tab

Plain Text Version
More Akercocke Tabs

Hits: 4627
Rated: 4.71 out of 5 (7 votes)
Updated: 2007-08-21 04:51:49

 

By:

Robbie Filth

sendpm.gif

email.gif

Co-authored by:

Unanything

sendpm.gif

email.gif

Important note
This tab is available online because we obtained explicit permission from Akercocke or their label.


#----------------------------------PLEASE NOTE---------------------------------#
#This file is the author's own work and represents their interpretation of the #
#song. You may only use this file for private study, scholarship, or research. #
#Unless specified otherwise, this is NOT an official tab from the band members.#
#------------------------------------------------------------------------------#

  Visit MetalTabs.com for more metal tablature
  
Band: Akercocke
Album: Antichrist
Song: Axiom
Record Label: Earache
Tuning: C F A# D# G C

Listen to song for exact rhythms.


(Clean/Acoustic)
----------0-----------------0---------
--------8---8-------------8---8-------
-----11-------11-------11-------11----
---9-------------9---9-------------9--
--------------------------------------
-0-----------------0------------------

---------0---------------0--------
-------0---0-----------0---0------
-----4-------4-------4-------4----
---5-----------5---5-----------5--
-3---------------3----------------
----------------------------------

----------0-----------------0---------
--------8---8-------------8---8-------
-----11-------11-------11-------11----
---9-------------9---9-------------9--
--------------------------------------
-0-----------------0------------------

---------0-------------
-------0---0-----------
-----4-------4---------
---5-----------5-------
-3----------------5-5--
------------------3-3--
                 (the two power chords are distorted)

----------0-----------------0---------
--------8---8-------------8---8-------
-----11-------11-------11-------11----
---9-------------9---9-------------9--
--------------------------------------
-0-----------------0------------------

---------0---------------0--------
-------0---0-----------0---0------
-----4-------4-------4-------4----
---5-----------5---5-----------5--
-3---------------3----------------
----------------------------------

----------0-----------------0---------
--------8---8-------------8---8-------
-----11-------11-------11-------11----
---9-------------9---9-------------9--
--------------------------------------
-0-----------------0------------------

---------0---------------0--------
-------0---0---------------0------
-----4-------4-------4-------4----
---5-----------5---5---5-------5--
-3---------------5----------------
----------------------------------

----------0-----------------0---------
--------8---8-------------8---8-------
-----11-------11-------11-------11----
---9-------------9---9-------------9--
--------------------------------------
-0-----------------0------------------

---------0---------------0--------
-------0---0-----------0---0------
-----4-------4-------4-------4----
---5-----------5---5-----------5--
-3---------------3----------------
----------------------------------

----------0-----------------0---------
--------8---8-------------8---8-------
-----11-------11-------11-------11----
---9-------------9---9-------------9--
--------------------------------------
-0-----------------0------------------

---------0---------------0--------
-------0---0---------------0------
-----4-------4-------4-------4----
---5-----------5---5---5-------5--
-3---------------5----------------
----------------------------------

(Distortion)
-------------------------------------------
-------------------------------------------
-------------------------------------------
-2222222222222233666666666666667799999999--
-xxxxxxxxxxxxxxxxxxxxxxxxxxxxxxxxxxxxxxxx--
-0000000000000000000000000000000000000000--
 trem....................................

-----------------------------------------------
-----------------------------------------------
-----------------------------------------------
-22222222222222336666666666666677999910101010--
-xxxxxxxxxxxxxxxxxxxxxxxxxxxxxxxxxxxxxxxxxxxx--
-000000000000000000000000000000000000-0-0-0-0--
 trem.........................................

(Back to clean)
----------0-----------------0---------
--------8---8-------------8---8-------
-----11-------11-------11-------11----
---9-------------9---9-------------9--
--------------------------------------
-0-----------------0------------------

---------0---------------0--------
-------0---0-----------0---0------
-----4-------4-------4-------4----
---5-----------5---5-----------5--
-3---------------3----------------
----------------------------------

----------0-----------------0---------
--------8---8-------------8---8-------
-----11-------11-------11-------11----
---9-------------9---9-------------9--
--------------------------------------
-0-----------------0------------------

---------0---------------0--------
-------0---0---------------0------
-----4-------4-------4-------4----
---5-----------5---5---5-------5--
-3---------------5----------------
----------------------------------

----------0-----------------0---------
--------8---8-------------8---8-------
-----11-------11-------11-------11----
---9-------------9---9-------------9--
--------------------------------------
-0-----------------0------------------

---------0---------------0--------
-------0---0-----------0---0------
-----4-------4-------4-------4----
---5-----------5---5-----------5--
-3---------------3----------------
----------------------------------

----------0-----------------0---------
--------8---8-------------8---8-------
-----11-------11-------11-------11----
---9-------------9---9-------------9--
--------------------------------------
-0-----------------0------------------

---------0---------------0--------
-------0---0---------------0------
-----4-------4-------4-------4----
---5-----------5---5---5-------5--
-3---------------5----------------
----------------------------------

(Distortion)
-------------------------------------------
-------------------------------------------
-------------------------------------------
-2222222222222233666666666666667799999999--
-xxxxxxxxxxxxxxxxxxxxxxxxxxxxxxxxxxxxxxxx--
-0000000000000000000000000000000000000000--
 trem....................................

-----------------------------------------------
-----------------------------------------------
-----------------------------------------------
-22222222222222336666666666666677999910101010--
-xxxxxxxxxxxxxxxxxxxxxxxxxxxxxxxxxxxxxxxxxxxx--
-000000000000001144444444444444557777-8-8-8-8--
 trem.........................................

-------------------------------------------------------------
----------------------------------------------------------*--
-------------------------------------------------------67-8--
-------9-10-9-----------------------9-10-9---------4567------
-2-222-7--8-7-222-222---------2-222-7--8-7-222-222-----------
-0-000--------000-000-4-1-3-1-0-000--------000-000-----------
   pm.        ... ... . . . .   ...        ... ...   * = Pinch Harmonic

--------------------------------------------------------------------
--------------------------------------------------------------------
--------------------------------------------------------------------
-------9-10-9-----------------------9-10-9--------------------------
-2-222-7--8-7-222-222---------2-222-7--8-7-222-222-2-1-----3-2------
-0-000--------000-000-4-1-3-1-0-000--------000-000-----3-2-----2-1--
   pm.        ... ... . . . .   ...        ... ... . . . . . . . .

-------------------------------------------------------------
----------------------------------------------------------*--
-------------------------------------------------------67-8--
-------9-10-9-----------------------9-10-9---------4567------
-2-222-7--8-7-222-222---------2-222-7--8-7-222-222-----------
-0-000--------000-000-4-1-3-1-0-000--------000-000-----------
   pm.        ... ... . . . .   ...        ... ...   * = Pinch Harmonic

--------------------------------------------------------------------
--------------------------------------------------------------------
--------------------------------------------------------------------
-------9-10-9-----------------------9-10-9--------------------------
-2-222-7--8-7-222-222---------2-222-7--8-7-222-222-2-1-----3-2------
-0-000--------000-000-4-1-3-1-0-000--------000-000-----3-2-----2-1--
   pm.        ... ... . . . .   ...        ... ... . . . . . . . .

---------------------------------------------------------------------
---------------------------------------------------------------------
---------------------------------------------------------------------
-----3333333333333333333322222222------33333333333333333333----------
-----------------------------------------------------------77773333--
-00000000000000004444444433333333--00000000000000004444444455551111--
 trem..............................................................

(pause)

---------------------------------------------------------------------
---------------------------------------------------------------------
---------------------------------------------------------------------
-----3333333333333333333322222222------33333333333333333333----------
-----------------------------------------------------------77773333--
-----1111111111114444444433333333--00001111111111114444444455551111--
     trem..........................................................

-----0-----0-----0-----0---------0-----0-----0-----0------
---6-----6-----6-----6---------6-----6-----6-----6--------
-8-----8-----8-----8---------8-----8-----8-----8----------
-------------------------3-3-------------------------3-3--
-------------------------2-2-------------------------2-2--
-------------------------1-1-------------------------1-1--
                         pm.                         . .

-----0-----0-----0-----0---------0-----0-----0-----0--
---6-----6-----6-----6---------6-----6-----6-----6----
-8-----8-----8-----8---------8-----8-----8-----8------
-------------------------3-3-------------*-------------
-------------------------2-2--------------------------
-------------------------1-1--------------------------
                         . . *from here slowly bend the 8 and 6

------------------------------------------------------
------------------------------------------------------
------------------------------------------------------
-------------------------------------------------2-4--
-4-4--4-5-4--4-5-4--4-8-8--8--4-4--4-5-4--4-----------
-2-2--2-3-2--2-3-2--2-6-6--6--2-2--2-3-2--2--1-3------
                                             trem....

-----0-----0-----0-----0---------0-----0-----0-----0------
---6-----6-----6-----6---------6-----6-----6-----6--------
-8-----8-----8-----8---------8-----8-----8-----8----------
-------------------------3-3-------------------------3-3--
-------------------------2-2-------------------------2-2--
-------------------------1-1-------------------------1-1--X2
                         pm.                         . .

-----0-----0-----0-----0---------0-----0-----0-----0--
---6-----6-----6-----6---------6-----6-----6-----6----
-8-----8-----8-----8---------8-----8-----8-----8------
-------------------------3-3-------------*------------
-------------------------2-2--------------------------
-------------------------1-1--------------------------
                         . . *from here slowly bend the 8 and 6

------------------------------------------------------
------------------------------------------------------
------------------------------------------------------
-------------------------------------------------2-4--
-4-4--4-5-4--4-5-4--4-8-8--8--4-4--4-5-4--4-----------
-2-2--2-3-2--2-3-2--2-6-6--6--2-2--2-3-2--2--1-3------X2
                                             trem....

----------------------------------
----------------------------------
----------------------------------
-----2-4-----2-4-----1-3-----1-3--
----------------------------------
-1-3-----1-3-----0-2-----0-2------
 trem...........................

------------------------------------------------
------------------------------------------------
------------------------------------------------
------------------------------------------------
-3----------4-----3-----1----------2-----1------
---22222222---222---222---33333333---333---333--
   pm......   ...   ...   ........   ...   ...

---------------------------------------------------
---------------------------------------------------
---------------------------------------------------
---------------------------------------------------
-3----------4-----3-----1----------5-5--5--8-8--8--
---22222222---222---222---33333333-3-3--3--6-6--6--
   pm......   ...   ...   ........

------------------------------------------------
------------------------------------------------
------------------------------------------------
------------------------------------------------
-3----------4-----3-----1----------2-----1------
---22222222---222---222---33333333---333---333--
   pm......   ...   ...   ........   ...   ...

---------------------------------------------------
---------------------------------------------------
---------------------------------------------------
---------------------------------------------------
-3----------4-----3-----1----------5-5--5--8-8--8--
---22222222---222---222---33333333-3-3--3--6-6--6--
   pm......   ...   ...   ........

------------------------------------------------
------------------------------------------------
------------------------------------------------
------------------------------------------------
-3----------4-----3-----1----------2-----1------
---22222222---222---222---33333333---333---333--
   pm......   ...   ...   ........   ...   ...

---------------------------------------------------
---------------------------------------------------
---------------------------------------------------
---------------------------------------------------
-3----------4-----3-----1----------5-5--5--4-4--4--
---22222222---222---222---33333333-3-3--3--2-2--2--
   pm......   ...   ...   ........

(Solo, Thanks to Cal for working out the shred parts)

-18-17--15h17p15-15--15-14-----15-14---------------------------------------
-^-----------------------------------15-----------------------15-----------
----------------------------------------16-----------------12----16-12/14--
-------------------------------------------17-16-12-14--14-----------------
---------------------------------------------------------------------------
---------------------------------------------------------------------------
^ = half bend

-----------------------------------------------------------------------
----------------------17-19-20-19-17-----------------------------------
-20-19----17-16-17-19----------------19-17-16-14-----------------------
-^-----------------------------------------------17-16-14-12-----------
-------------------------------------------------------------15-14-12--
-----------------------------------------------------------------------
^ = Full Bend

(cont. from above)
------------------------------------------------
------------------------------------------------
------------------------------------------------
-----------------14-14/16/17-17\16\14-14/16/17--
------------------x--x--x--x--x--x--x--x--x--x--
-15-14-12-10-12--12-12/14/15-15\14\12-12/14/15-

-------------------------------------------------------------------------
---------------------------------------------------------------------15--
----------------------------------------------------1614121416141214-^---
-----------------------------------1614121416141214----------------------
------------------1514121415141214---------------------------------------
-1514121415141214--------------------------------------------------------
^ = full bend

---------------------------------------------------------------------
---------------------------------------------------------------------
---------------------------------------------------------------------
-----3333333333333333333322222222------33333333333333333333----------
-----------------------------------------------------------77773333--
-00000000000000004444444433333333--00000000000000004444444455551111--
 trem..............................................................

---------------------------------------------------------------------
---------------------------------------------------------------------
---------------------------------------------------------------------
-----3333333333333333333322221111------33333333333333333333----------
-----------------------------------------------------------77773333--
-00000000000000004444444433332222--00000000000000004444444455551111--
 trem..............................................................


-----0-----0-----0-----0---------0-----0-----0-----0------
---6-----6-----6-----6---------6-----6-----6-----6--------
-8-----8-----8-----8---------8-----8-----8-----8----------
-------------------------3-3-------------------------3-3--
-------------------------2-2-------------------------2-2--
-------------------------1-1-------------------------1-1--X2
                         pm.                         . .


(Guitar with weird effects on til end)


THE END


septic_flesh241@hotmail.com

  Visit MetalTabs.com for more metal tablature

bottom separator

Contact Us | Privacy Policy | Disclaimer | Legal Notice
Copyright © 2001-2014 MetalTabs.com. All Rights Reserved.