top separator

Home

Forum

What's New

Submit a Tab

FAQ

Links

Contact Us

Link to Us

MetalTabs.com logo

Bands

0-9

A

B

C

D

E

F

G

H

I

J

K

L

M

N

O

P

Q

R

S

T

U

V

W

X

Y

Z

Search

What

Where
 

Rompeprop - "Swarming Of The Cysts" Guitar Tab

Plain Text Version
More Rompeprop Tabs

Hits: 1494
Updated: 2007-08-21 04:51:06

 

By:

goatman

sendpm.gif

email.gif

Important note
This tab is available online because we obtained explicit permission from Rompeprop or their label.


#----------------------------------PLEASE NOTE---------------------------------#
#This file is the author's own work and represents their interpretation of the #
#song. You may only use this file for private study, scholarship, or research. #
#Unless specified otherwise, this is NOT an official tab from the band members.#
#------------------------------------------------------------------------------#

  Visit MetalTabs.com for more metal tablature
  
Band:  (ROMPEPROP)
Album: (MENSTRUAL STOMPHULK)
Song:  (SWARMING OF THE CYSTS)

Copyright (c)  (BIZARRE LEPROUS PRODUCTIONS) (2002)

Transcribed By: (GOATMAN)
Email:          (VIRUS010891@AOL.COM)


.  - palm mute           "  - tremolo         ()  - sustained note/chord

\  - slide down          <>  - pinched harmonic


Tuning: B Standard
                            x4                           x2
|----------------------------|----------------------------|
|.--------------------------.|.--------------------------.|
|----------------------------|----------------------------|
|----------------------------|----------------------------|
|.---------------------(2)"-.|.-5--5-5--7--5--4--5--(2)"-.|
|-(3)"--5"--3"--2"--3"-------|--3--3-3--5--3--2--3--------|
                                   . .
                            x2
|----------------------------|-----------------------------------------------
|.--------------------------.|-----------------------------------------------
|----------------------------|-----------------------------------------------
|----------------------------|-----------------------------------------------
|.---------------------(2)"-.|-(3)--5--3--2--3--(2)--(3)--5--3--2--3--2--2-2-
|-(3)"--5"--3"--2"--3"-------|-(3)--5--3--2--3--(2)--(3)--5--3--2--3--2--2-2-
                                .   .  .  .  .   .    .   .  .  .  .  .  . .

----------------------------------------------------|--------------------------
----------------------------------------------------|.-------------------------
----------------------------------------------------|--------------------------
----------------------------------------------------|--------------------------
-(3)--5--3--2--3--2--2-2--5--5-5--7--5--4--5--4--4--|.---------------------(2)"
-(3)--5--3--2--3--2--2-2--3--3-3--5--3--2--3--2--2--|-(3)"--5"--3"--2"--3"-----
  .   .  .  .  .  .  . .     . .

                           x6
----------------------------|---------------------------------------------------
---------------------------.|---------------------------------------------------
----------------------------|---------------------------------------------------
----------------------------|---------------------------------------------------
---------------------------.|-5--5-5--7--5--4--5--(2)"--5--5-5--7--5--4--5------
(3)"--5"--3"--2"--3"--(2)"--|-3--3-3--5--3--2--3--------3--3-3--5--3--2--3--(2)"
                                 . .                       . .
                                                                        x2
-----------------------------------------------------|-------------------|
-----------------------------------------------------|.-----------------.|
-----------------------------------------------------|-------------------|
-----------------------------------------------------|-------------------|
-5--5-5--7--5--4--5--(2)"--5--5-5--7--5--4--5--------|.-2-2-2-2-2-2-2-2-.|
-3--3-3--5--3--2--3--------3--3-3--5--3--2--3--(7)\--|--0-0-0-0-0-0-0-0--|
    . .                       . .        .  .           . . . . . . . .

                    x2                    x2
|--------------------|---------------------|-----------------------------------
|.------------------.|.-------------------.|.----------------------------------
|--------------------|---------------------|-----------------------------------
|--------------------|---------------------|-----------------------------------
|.-2222222222222222-.|.-2-2-2-2-2-2-2-2-2-.|.-22222222222222222222222222-2-2-2-
|--0000000000000000--|--0-0-0-0-0-0-0-0-0--|--00000000000000000000000000-0-0-0-
   ................     . . . . . . . . .     .......................... . . .

              x3                            x13                               x2
|--------------|--------------|--------------|-------------|-------------------|
|.------------.|--------------|.------------.|-------------|.-----------------.|
|--------------|--------------|--------------|-------------|-------------------|
|--------------|----------<2>~|--------------|-------------|-------------------|
|.-2--2--2--2-.|-2--2--2------|.-2--2--2--2-.|--2--2--2--2-|.-2-2-2-2-2-2-2-2-.|
|--0--0--0--0--|-0--0--0------|--0--0--0--0--|--0--0--0--0-|--0-0-0-0-0-0-0-0--|
   .  .  .  .    .  .  .         .  .  .  .     .  .  .       . . . . . . . .

              x8                            x8
|--------------|-----------------------------|-----------------------
|.------------.|.---------------------------.|-----------------------
|--------------|-----------------------------|-----------------------
|--------------|-----------------------------|-----------------------
|.-2--2--2--2-.|.--5--5-5--7--5--4--5--(2)"-.|-(3)--5--3--2--3--(2)--
|--0--0--0--0--|---3--3-3--5--3--2--3--------|-(3)--5--3--2--3--(2)--
   .  .  .  .         . .                       .   .  .  .  .   .


------------------------
------------------------
------------------------
------------------------
-(3)--5--3--2--3--(2)\--
-(3)--5--3--2--3--(2)\--
  .   .  .  .  .

  Visit MetalTabs.com for more metal tablature

bottom separator

Contact Us | Privacy Policy | Disclaimer | Legal Notice
Copyright © 2001-2014 MetalTabs.com. All Rights Reserved.