top separator

Home

Forum

What's New

Submit a Tab

FAQ

Links

Contact Us

Link to Us

MuSpy.com

MetalTabs.com logo

Bands

0-9

A

B

C

D

E

F

G

H

I

J

K

L

M

N

O

P

Q

R

S

T

U

V

W

X

Y

Z

Search

What

Where
 

Rompeprop - "Pelikanelul" Guitar Tab

Plain Text Version
More Rompeprop Tabs

Hits: 1487
Updated: 2007-08-21 04:50:45

 

By:

goatman

sendpm.gif

email.gif

Important note
This tab is available online because we obtained explicit permission from Rompeprop or their label.


#----------------------------------PLEASE NOTE---------------------------------#
#This file is the author's own work and represents their interpretation of the #
#song. You may only use this file for private study, scholarship, or research. #
#Unless specified otherwise, this is NOT an official tab from the band members.#
#------------------------------------------------------------------------------#

  Visit MetalTabs.com for more metal tablature
  
Band:  (ROMPEPROP)
Album: (MENSTRUAL STOMPHULK)
Song:  (PELIKANELUL)

Copyright (c)  (BIZARRE LEPROUS PRODUCTIONS) (2002)

Transcribed By: (GOATMAN)
Email:          (VIRUS010891@AOL.COM)


.  - palm mute           r  - one beat rest


Tuning: B Standard
 (BASS)       x8                  x12
|--------------|-------------------|---------------------------------
|.------------.|.-----------------.|.--------------------------------
|--------------|-------------------|---------------------------------
|--------------|-------------------|---------------------------------
|.----5-------.|.-----5-5---------.|.-----5-5--8--6------5-5--8--6--
|--3-----6--4--|--3-3-----6-6-4-4--|--3-3------6--4--3-3------6--4--
                  . . . . . . . .     . . . .        . . . .
                                x2                  x8
---------------------------------|-------------------|--------------
--------------------------------.|.-----------------.|--------------
---------------------------------|-------------------|--------------
---------------------------------|-------------------|--------------
-----5-5--8--6------5-5---------.|.-----5-5---------.|--7--r--r--r--
-3-3------6--4--3-3-----3-3-3-3--|--3-3-----6-6-4-4--|--5-----------
 . . . .        . . . . . . . .     . . . . . . . .
                                                                      x10
--------------------------------------|---------------------------------|
--------------------------------------|.-------------------------------.|
--------------------------------------|---------------------------------|
--------------------------------------|---------------------------------|
--r--r--r--r--r--r--r--r--r--r--r--r--|.-7--7--7-7--7--7-7--7--7--5--4-.|
--------------------------------------|--5--5--5-5--5--5-5--5--5--3--2--|

                   x8
|-------------------|----
|.-----------------.|----
|-------------------|----
|-------------------|----
|.-----5-5---------.|-2--
|--3-3-----6-6-4-4--|-0--
   . . . . . . . .

  Visit MetalTabs.com for more metal tablature

bottom separator

Contact Us | Privacy Policy | Disclaimer | Legal Notice
Copyright © 2001-2014 MetalTabs.com. All Rights Reserved.