top separator

Home

Forum

What's New

Submit a Tab

FAQ

Links

Contact Us

Link to Us

MuSpy.com

MetalTabs.com logo

Bands

0-9

A

B

C

D

E

F

G

H

I

J

K

L

M

N

O

P

Q

R

S

T

U

V

W

X

Y

Z

Search

What

Where
 

Rompeprop - "The Babyshitter" Guitar Tab

Plain Text Version
More Rompeprop Tabs

Hits: 1609
Updated: 2007-08-21 04:47:20

 

By:

goatman

sendpm.gif

email.gif

Important note
This tab is available online because we obtained explicit permission from Rompeprop or their label.


#----------------------------------PLEASE NOTE---------------------------------#
#This file is the author's own work and represents their interpretation of the #
#song. You may only use this file for private study, scholarship, or research. #
#Unless specified otherwise, this is NOT an official tab from the band members.#
#------------------------------------------------------------------------------#

  Visit MetalTabs.com for more metal tablature
  
Band:  (ROMPEPROP)
Album: (MENSTRUAL STOMPHULK)
Song:  (THE BABYSHITTER)

Copyright (c)  (BIZARRE LEPROUS PRODUCTIONS) (2002)

Transcribed By: (GOATMAN)
Email:          (VIRUS010891@AOL.COM)


.  - palm mute          "  - tremolo        ()  - sustained note/chord


Tuning: B Standard
                              X6
|------------------------------|-------------------------------------
|.----------------------------.|-------------------------------------
|------------------------------|-------------------------------------
|------------------------------|-------------------------------------
|.-5--5--3-3-3--5--5-5-3-3--6-.|-(3)"-(1)"----4"-(3)"-(1)"-----------
|--3--3--1-1-1--3--3-3-1-1--4--|-----------3"-------------(3)"-(6)"--

                              X2                         X4
|------------------------------|--------------------------|
|.----------------------------.|.------------------------.|
|------------------------------|--------------------------|
|------------------------------|--------4--2--7--5--4-----|
|.-5--5--3-3-3--5--5-5-3-3--6-.|.-2-----2--0--5--3--2--7-.|
|--3--3--1-1-1--3--3-3-1-1--4--|--0--0-----------------5--|
                                  .  .  .  .  .  .  .  .

-------------------------------------------------------------------------
-------------------------------------------------------------------------
-------------------------------------------------------------------------
-------4--2--7--5--4-----------4--2--7--5--4-----------4--2--7--5--4-----
-2-----2--0--5--3--2--7--2-----2--0--5--3--2--7--2-----2--0--5--3--2--7--
-0--0-----------------5--0--0-----------------5--0--0-----------------5--
 .  .  .  .              .  .                    .  .     .     .  .  .
                                                   X4                         X2
-------------------------|--------------------------|--------------------------|
-------------------------|.------------------------.|.------------------------.|
-------------------------|--------------------------|--------------------------|
-------4--2--7--5--4-----|--------4--2--7--5--4-----|--------4--2--7--5--4-----|
-2-----2--0--5--3--2--7--|.-2-----2--0--5--3--2--7-.|.-2-----2--0--5--3--2--7-.|
-0--0-----------------5--|--0--0-----------------5--|--0--0-----------------5--|
 .  .     .  .  .  .  .     .  .     .     .  .  .     .  .


|--------------------------|--------------------------|
|.------------------------.|.------------------------.|
|--------------------------|--------------------------|
|--------4--2--7--5--4-----|--------4--2--7--5--4-----|
|.-2-----2--0--5--3--2--7-.|.-2-----2--0--5--3--2--7-.|
|--0--0-----------------5--|--0--0-----------------5--|
   .  .  .  .  .  .  .  .     .  .
                                     X2                         X2
|-------------------------------------|--------------------------|
|.-----------------------------------.|.------------------------.|
|-------------------------------------|--------------------------|
|-------------------------------------|--------4--2--7--5--4-----|
|.-------------(5)"-------------(3)"-.|.-2-----2--0--5--3--2--7-.|
|--1"-0"-1"-0"------1"-0"-1"-0"-------|--0--0-----------------5--|
                                         .  .     .
                         X4                         X2                        X4
|-------------------------|--------------------------|-------------------------|
|.-----------------------.|.------------------------.|.-----------------------.|
|-------------------------|--------------------------|-------------------------|
|-------4--2--7--5--4-----|--------4--2--7--5--4-----|-------4--2--7--5--4-----|
|.2-----2--0--5--3--2--7-.|.-2-----2--0--5--3--2--7-.|.2-----2--0--5--3--2--7-.|
|-0--0-----------------5--|--0--0-----------------5--|-0--0-----------------5--|
  .  .  .  .  .  .  .  .     .  .                      .  .  .  .  .  .  .  .
                          X2                                   X2
|--------------------------|------------------------------------|----
|.------------------------.|.----------------------------------.|----
|--------------------------|------------------------------------|----
|--------4--2--7--5--4-----|------------------------------------|----
|.-2-----2--0--5--3--2--7-.|.-------------(5)"------------(3)"-.|-2--
|--0--0-----------------5--|--1"-0"-1"-0"-----1"-0"-1"-0"-------|-0--
   .  .

  Visit MetalTabs.com for more metal tablature

bottom separator

Contact Us | Privacy Policy | Disclaimer | Legal Notice
Copyright © 2001-2014 MetalTabs.com. All Rights Reserved.