top separator

Home

Forum

What's New

Submit a Tab

FAQ

Links

Contact Us

Link to Us

MuSpy.com

MetalTabs.com logo

Bands

0-9

A

B

C

D

E

F

G

H

I

J

K

L

M

N

O

P

Q

R

S

T

U

V

W

X

Y

Z

Search

What

Where
 

Rompeprop - "The Erected Underwater Necro Clitstomper" Guitar Tab

Plain Text Version
More Rompeprop Tabs

Hits: 1336
Updated: 2007-08-21 04:46:59

 

By:

goatman

sendpm.gif

email.gif

Important note
This tab is available online because we obtained explicit permission from Rompeprop or their label.


#----------------------------------PLEASE NOTE---------------------------------#
#This file is the author's own work and represents their interpretation of the #
#song. You may only use this file for private study, scholarship, or research. #
#Unless specified otherwise, this is NOT an official tab from the band members.#
#------------------------------------------------------------------------------#

  Visit MetalTabs.com for more metal tablature
  
Band:  (ROMPEPROP)
Album: (MENSTRUAL STOMPHULK)
Song:  (THE ERECTED UNDERWATER NECRO CLITSTOMPER)

Copyright (c)  (BIZARRE LEPROUS PRODUCTIONS) (2002)

Transcribed By: (GOATMAN)
Email:          (VIRUS010891@AOL.COM)


.  - palm mute           "  - tremolo      r  - one beat rest


Tuning: B Standard
                                   x4                                  x2
|-----------------------------------|-----------------------------------|
|.---------------------------------.|.---------------------------------.|
|-----------------------------------|-----------------------------------|
|-----------------------------------|-----------------------------------|
|.-9--7--7-9--7--7-9--7--7-5-5-5-5-.|.-5--3--3-5--3--3-5--3--3-2-2-2-2-.|
|--7--5--5-7--5--5-7--5--5-3-3-3-3--|--3--1--1-3--1--1-3--1--1-0-0-0-0--|


-----------------------------------------------------------
-----------------------------------------------------------
-----------------------------------------------------------
-----------------------------------------------------------
--3--r--r--r--r--r--r--r--5--3--3-5--3--3-5--3--3-2-2-2-2--
--1-----------------------3--1--1-3--1--1-3--1--1-0-0-0-0--

                                   x2                  x10
|-----------------------------------|-------------------|
|.---------------------------------.|.-----------------.|
|-----------------------------------|-------------------|
|-----------------------------------|-------------------|
|.-9--7--7-9--7--7-9--7--7-5-5-5-5-.|.-5-5-5-7-2-3-5-5-.|
|--7--5--5-7--5--5-7--5--5-3-3-3-3--|--3-3-3-5-0-1-3-3--|
                                       . . . . . . . .
                                   x2                  x4
|-----------------------------------|-------------------|
|.---------------------------------.|.-----------------.|
|-----------------------------------|-------------------|
|-----------------------------------|-------------------|
|.-5--3--3-5--3--3-5--3--3-2-2-2-2-.|.-5-5-5-7-2-3-5-5-.|
|--3--1--1-3--1--1-3--1--1-0-0-0-0--|--3-3-3-5-0-1-3-3--|
                                       . . . . . . . .
                                   x2                   x4
|-----------------------------------|--------------------|
|.---------------------------------.|.------------------.|
|-----------------------------------|--------------------|
|-----------------------------------|--------------------|
|.-5--3--3-5--3--3-5--3--3-2-2-2-2-.|.-5-5-5-7-2-3-5-5--.|
|--3--1--1-3--1--1-3--1--1-0-0-0-0--|--3-3-3-5-0-1-3-3---|
                                       . . . . . . . .
                       x12                                 x2
|-----------------------|-----------------------------------|
|.---------------------.|.---------------------------------.|
|-----------------------|-----------------------------------|
|-----------------------|-----------------------------------|
|.---------------------.|.-5--3--3-5--3--3-5--3--3-2-2-2-2-.|
|--1"-3"-4"-3"--1"---0"-|--3--1--1-3--1--1-3--1--1-0-0-0-0--|

                                   x4                                  x2
|-----------------------------------|-----------------------------------|
|.---------------------------------.|.---------------------------------.|
|-----------------------------------|-----------------------------------|
|-----------------------------------|-----------------------------------|
|.-9--7--7-9--7--7-9--7--7-5-5-5-5-.|.-5--3--3-5--3--3-5--3--3-2-2-2-2-.|
|--7--5--5-7--5--5-7--5--5-3-3-3-3--|--3--1--1-3--1--1-3--1--1-0-0-0-0--|

                   x6
|-------------------|----
|.-----------------.|----
|-------------------|----
|-------------------|----
|.-5-5-5-7-2-3-5-5-.|-2--
|--3-3-3-5-0-1-3-3--|-0--
   . . . . . . . .

  Visit MetalTabs.com for more metal tablature

bottom separator

Contact Us | Privacy Policy | Disclaimer | Legal Notice
Copyright © 2001-2014 MetalTabs.com. All Rights Reserved.