top separator

Home

Forum

What's New

Submit a Tab

FAQ

Links

Contact Us

Link to Us

MetalTabs.com logo

Bands

0-9

A

B

C

D

E

F

G

H

I

J

K

L

M

N

O

P

Q

R

S

T

U

V

W

X

Y

Z

Search

What

Where
 

Decapitated - "Day 69" Guitar Tab

Plain Text Version
More Decapitated Tabs

Hits: 5359
Rated: 5.00 out of 5 (2 votes)
Updated: 2007-08-21 04:09:38

 

By:

Robbie Filth

sendpm.gif

email.gif

Important note
This tab is available online because we obtained explicit permission from Decapitated or their label.


#----------------------------------PLEASE NOTE---------------------------------#
#This file is the author's own work and represents their interpretation of the #
#song. You may only use this file for private study, scholarship, or research. #
#Unless specified otherwise, this is NOT an official tab from the band members.#
#------------------------------------------------------------------------------#

  Visit MetalTabs.com for more metal tablature
  
Band: Decapitated
Album: Organic Hallucinosis
Song: Day 69
Record Label: Earache
Tuning: C# F# B E G# C#
Tabbed by: Robert Fretwell

pm. . . = palm mute
\\\\\ = slide down
/ = slide up
v = vibrato
trem..... = trem pick
^
v = bend up and release slowly (Listen to song for exact rhythms.)

----------------------------------------------------------
----------------------------------------------------------
----------------------------------------------------------
-----------8--------------8----------------------------8--
-----------6--------------6----------------------------6--
-222111000-6----222111000-6----1110-1134-1343222111000-6--
 pm.......      .........      .... .... .............


--------------------------------------
--------------------------------------
--------------------------------------
---------------------9-----------v-v--
---------------------7----6-9-10-8-8--
-\\\\\\\\\\\-1111111-7----------------
             pm.....

----------------------------------------------------------
----------------------------------------------------------
-----------^--------------^----------------------------^--
-----------v--------------v----------------------------v--
-----------6--------------6----------------------------6--
-222111000------222111000------1110-1134-1343222111000----
 pm.......      .........      .... .... .............
           trem           trem                         trem

---------------------------
---------------------------
---------------------------
----------9-----------v-v--
----------7----6-9-10-8-8--
--1111111-7----------------
  pm.....

------------------------------------------------------------------
------------------------------------------------------------------
------------------------------------------------------------------
--------------------------------------------6---5---5-/6\5/6\5/6--
-3333---3---5-3333---3333---4444---333333---x---x---x--x-x-x-x-x--
-1111-0-1-0-3-1111-0-1111-0-2222-0-111111-0-4-0-3-0-3-/4\3/4\3/4--X3
 pm.. . . . . .... . .... . .... . ...... .   .   .

-------------------------------------------------------------
-------------------------------------------------------------
-------------------------------------------------------------
--------------------------------------------6---5---6\5/6\9--
-3333---3---5-3333---3333---4444---333333---x---x---x-x-x-x--
-1111-0-1-0-3-1111-0-1111-0-2222-0-111111-0-4-0-3-0-4\3/4\7--
 pm.. . . . . .... . .... . .... . ...... .   .   .

-----------------------------------------------------------------
-----------------------------------------------------------------
-----------------------------------------------------------------
---------------------------6---5---9---8---6---5--5-5/6-5/6------
-3-3-2-2---4-4-2-2---------x---x---x---x---x---x--x-x-x-x-x-2-2--
-1-1-0-0---2-2-0-0---0-0-0-4-0-3-0-7-0-6-0-4-0-3--3-3/4-3/4-0-0--
     pm        .     . . .   .   .   .   .   .              . .

-----------------------------------------------------------------
-----------------------------------------------------------------
-----------------------------------------------------------------
---------------------------6---5---9---8-------11-----5-----5-5--
-3-3-2-2---4-4-2-2---------x---x---x---x--------x-----x-----x-x--
-1-1-0-0---2-2-0-0---0-0-0-4-0-3-0-7-0-6-0-0-0--9-0-0-3-0-0-3-3--
     pm        .     . . .   .   .   .   . . .    . .   . .

-----------------------------------------------------------------
-----------------------------------------------------------------
-----------------------------------------------------------------
---------------------------6---5---9---8---6---5--5-5/6-5/6------
-3-3-2-2---4-4-2-2---------x---x---x---x---x---x--x-x-x-x-x-2-2--
-1-1-0-0---2-2-0-0---0-0-0-4-0-3-0-7-0-6-0-4-0-3--3-3/4-3/4-0-0--
     pm        .     . . .   .   .   .   .   .              . .

-----------------------------------------------------------------
-----------------------------------------------------------------
-----------------------------------------------------------------
---------------------------6---5---9---8-------11-----5-----5-5--
-3-3-2-2---4-4-2-2---------x---x---x---x--------x-----x-----x-x--
-1-1-0-0---2-2-0-0---0-0-0-4-0-3-0-7-0-6-0-0-0--9-0-0-3-0-0-3-3--
     pm        .     . . .   .   .   .   . . .    . .   . .

------------------------------------------------------------------
------------------------------------------------------------------
------------------------------------------------------------------
-------4-------5-------4-----5-----------------2-----2-----2---2--
---3-------3-------3-----3-----3---3-----------1-----1-----1---1--
-2---2---2---2---2---2-----2-----2---2\1-0-0-0---0-0---0-0---0----
pm   .   .   .   .   .           .       . . .   . .   . .   .

------------------------------------------------------------------
------------------------------------------------------------------
------------------------------------------------------------------
-------4-------5-------4-----5-----------------5-----5-----5---5--
---3-------3-------3-----3-----3---3-----------4-----4-----4---4--
-2---2---2---2---2---2-----2-----2---2\1-0-0-0---0-0---0-0---0----
pm   .   .   .   .   .           .       . . .   . .   . .   .

------------------------------------------------------------------
------------------------------------------------------------------
------------------------------------------------------------------
-------4-------5-------4-----5-----------------2-----2-----2---2--
---3-------3-------3-----3-----3---3-----------1-----1-----1---1--
-2---2---2---2---2---2-----2-----2---2\1-0-0-0---0-0---0-0---0----
pm   .   .   .   .   .           .       . . .   . .   . .   .

--------------------------
--------------------------
--------------------------
-------4-------5-----4----
---3-------3-----3-----3--
-2---2---2---2-----2------
 pm  .   .   .

(Over solo)
------------------------------------------------------------------
------------------------------------------------------------------
------------------------------------------------------------------
--------------------------------------------6---5---5-/6\5/6\5/6--
-3333---3---5-3333---3333---4444---333333---x---x---x--x-x-x-x-x--
-1111-0-1-0-3-1111-0-1111-0-2222-0-111111-0-4-0-3-0-3-/4\3/4\3/4--X3
 pm.. . . . . .... . .... . .... . ...... .   .   .

-------------------------------------------------------------
-------------------------------------------------------------
-------------------------------------------------------------
--------------------------------------------6---5---6\5/6\9--
-3333---3---5-3333---3333---4444---333333---x---x---x-x-x-x--
-1111-0-1-0-3-1111-0-1111-0-2222-0-111111-0-4-0-3-0-4\3/4\7--
 pm.. . . . . .... . .... . .... . ...... .   .   .

-----------------------------------------------------------------
-----------------------------------------------------------------
-----------------------------------------------------------------
---------------------------6---5---9---8---6---5--5-5/6-5/6------
-3-3-2-2---4-4-2-2---------x---x---x---x---x---x--x-x-x-x-x-2-2--
-1-1-0-0---2-2-0-0---0-0-0-4-0-3-0-7-0-6-0-4-0-3--3-3/4-3/4-0-0--
     pm        .     . . .   .   .   .   .   .              . .

-----------------------------------------------------------------
-----------------------------------------------------------------
-----------------------------------------------------------------
---------------------------6---5---9---8-------11-----5-----5-5--
-3-3-2-2---4-4-2-2---------x---x---x---x--------x-----x-----x-x--
-1-1-0-0---2-2-0-0---0-0-0-4-0-3-0-7-0-6-0-0-0--9-0-0-3-0-0-3-3--
     pm        .     . . .   .   .   .   . . .    . .   . .

-----------------------------------------------------------------
-----------------------------------------------------------------
-----------------------------------------------------------------
---------------------------6---5---9---8---6---5--5-5/6-5/6------
-3-3-2-2---4-4-2-2---------x---x---x---x---x---x--x-x-x-x-x-2-2--
-1-1-0-0---2-2-0-0---0-0-0-4-0-3-0-7-0-6-0-4-0-3--3-3/4-3/4-0-0--
     pm        .     . . .   .   .   .   .   .              . .

-----------------------------------------------------------------
-----------------------------------------------------------------
-----------------------------------------------------------------
---------------------------6---5---9---8-------11-----5-----5-5--
-3-3-2-2---4-4-2-2---------x---x---x---x--------x-----x-----x-x--
-1-1-0-0---2-2-0-0---0-0-0-4-0-3-0-7-0-6-0-0-0--9-0-0-3-0-0-3-3--
     pm        .     . . .   .   .   .   . . .    . .   . .

------------------------------------------------------------------
------------------------------------------------------------------
------------------------------------------------------------------
-------4-------5-------4-----5-----------------2-----2-----2---2--
---3-------3-------3-----3-----3---3-----------1-----1-----1---1--
-2---2---2---2---2---2-----2-----2---2\1-0-0-0---0-0---0-0---0----
pm   .   .   .   .   .           .       . . .   . .   . .   .

------------------------------------------------------------------
------------------------------------------------------------------
------------------------------------------------------------------
-------4-------5-------4-----5-----------------5-----5-----5---5--
---3-------3-------3-----3-----3---3-----------4-----4-----4---4--
-2---2---2---2---2---2-----2-----2---2\1-0-0-0---0-0---0-0---0----
pm   .   .   .   .   .           .       . . .   . .   . .   .

------------------------------------------------------------------
------------------------------------------------------------------
------------------------------------------------------------------
-------4-------5-------4-----5-----------------2-----2-----2---2--
---3-------3-------3-----3-----3---3-----------1-----1-----1---1--
-2---2---2---2---2---2-----2-----2---2\1-0-0-0---0-0---0-0---0----
pm   .   .   .   .   .           .       . . .   . .   . .   .

--------------------------------------------
--------------------------------------------
--------------------------------------------
-------4-------5-------4-----5--------------
---3-------3-------3-----3-----3---3--------
-2---2---2---2---2---2-----2-----2---2\1-0--
pm   .   .   .   .   .           .


2:16
*Drum Solo*


----------------------------------------------------------
----------------------------------------------------------
-----------^--------------^----------------------------^--
-----------v--------------v----------------------------v--
-----------6--------------6----------------------------6--
-222111000------222111000------1110-1134-1343222111000----
 pm.......      .........      .... .... .............
           trem           trem                         trem

---------------------------
---------------------------
---------------------------
----------9-----------v-v--
----------7----6-9-10-8-8--
--1111111-7----------------
  pm.....

------------------------------------------------------------------
------------------------------------------------------------------
------------------------------------------------------------------
--------------------------------------------6---5---5-/6\5/6\5/6--
-3333---3---5-3333---3333---4444---333333---x---x---x--x-x-x-x-x--
-1111-0-1-0-3-1111-0-1111-0-2222-0-111111-0-4-0-3-0-3-/4\3/4\3/4--X3
 pm.. . . . . .... . .... . .... . ...... .   .   .

---------------------------------------------------------
---------------------------------------------------------
---------------------------------------------------------
--------------------------------------------6---5---6\5--
-3333---3---5-3333---3333---4444---333333---x---x---x-x--
-1111-0-1-0-3-1111-0-1111-0-2222-0-111111-0-4-0-3-0-4\3--
 pm.. . . . . .... . .... . .... . ...... .   .   .


THE END

any corrections mail them to: septic_flesh241@hotmail.com

  Visit MetalTabs.com for more metal tablature

bottom separator

Contact Us | Privacy Policy | Disclaimer | Legal Notice
Copyright © 2001-2014 MetalTabs.com. All Rights Reserved.