top separator

Home

Forum

What's New

Submit a Tab

FAQ

Links

Contact Us

Link to Us

MuSpy.com

MetalTabs.com logo

Bands

0-9

A

B

C

D

E

F

G

H

I

J

K

L

M

N

O

P

Q

R

S

T

U

V

W

X

Y

Z

Search

What

Where
 

Toxic Holocaust - "Demise" Guitar Tab

Plain Text Version
More Toxic Holocaust Tabs

Hits: 1846
Rated: 4.40 out of 5 (5 votes)
Updated: 2007-08-21 04:05:22

 

By:

Wolfsherz

sendpm.gif

email.gif

Important note
This tab is available online because we obtained explicit permission from Toxic Holocaust or their label.


#----------------------------------PLEASE NOTE---------------------------------#
#This file is the author's own work and represents their interpretation of the #
#song. You may only use this file for private study, scholarship, or research. #
#Unless specified otherwise, this is NOT an official tab from the band members.#
#------------------------------------------------------------------------------#

  Visit MetalTabs.com for more metal tablature
  
Band:  Toxic Holocaust
Album: Evil Never Dies
Song:  Demise

Copyright (c)  Witches Brew 2003

Transcribed By: Wolfsherz/Jens Cautereels
Email:          cautereels.jens@gmail.com

e ----------------------------------------------------------------
B ----------------------------------------------------------------
G ----------------------------------------------------------------
D -10-8--77-5-77-8-77-7-10-8-5-8--77-5-77-8-77--------------------
A -10-8--77-5-77-8-77-7-10-8-5-8--77-5-77-8-77--------------------
E -8--6--55-3-55-6-55-5-8--6-3-6--55-3-55-6-55--------------------

e ----------------------------------------------------------------
B ----------------------------------------------------------------
G ----------------------------------------------------------------
D -7----7----7-----10-8-5-8---------------------------------------
A -7----7----7-----10-8-5-8---------------------------------------
E -555555555555555-8--6-3-6--------------------------------------- x4

e ----------------------------------------------------------------
B ----------------------------------------------------------------
G ----------------------------------------------------------------
D -10-8--77-5-77-10-88-8-10-8-5-8--77-5-77-10-88-8-7/12/7---------
A -10-8--77-5-77-10-88-8-10-8-5-8--77-5-77-10-88-8-7/12/7---------
E -8--6--55-3-55-8--66-6-8--6-3-6--55-3-55-8--66-6-7/12/7---------


e ----------------------------------------------------------------
B ----------------------------------------------------------------
G ----------------------------------------------------------------
D -7----7----7-----10-8-5-8---------------------------------------
A -7----7----7-----10-8-5-8---------------------------------------
E -555555555555555-8--6-3-6--------------------------------------- x4

e ----------------------------------------------------------------
B ----------------------------------------------------------------
G ----------------------------------------------------------------
D -10-8--77-5-77-10-88-8-10-8-5-8--77-5-77-10-88-8-7/12/7---------
A -10-8--77-5-77-10-88-8-10-8-5-8--77-5-77-10-88-8-7/12/7---------
E -8--6--55-3-55-8--66-6-8--6-3-6--55-3-55-8--66-6-7/12/7---------

e ----------------------------------------------------------------
B ----------------------------------------------------------------
G ----------------------------------------------------------------
D -7-8-10-7-8-10----------7-8-10-7-8-10---------------------------
A -5-6-8--5-6-8--77777777-5-6-8--5-6-8--88888888888-7-------------
E ---------------55555555---------------66666666666-5-------------

e ----------------------------------------------------------------
B ----------------------------------------------------------------
G ----------------------------------------------------------------
D -7-8-10-7-8-10----------7-8-10-7-8-10---------------------------
A -5-6-8--5-6-8--77777777-5-6-8--5-6-8--101010101010101010-10-----
E ---------------55555555---------------8-8-8-8-8-8-8-8-8--8------

e ----------------------------------------------------------------
B ----------------------------------------------------------------
G ----------------------------------------------------------------
D -10-8--77-5-77-8-77-7-10-8-5-8--77-5-77-8-77--------------------
A -10-8--77-5-77-8-77-7-10-8-5-8--77-5-77-8-77--------------------
E -8--6--55-3-55-6-55-5-8--6-3-6--55-3-55-6-55--------------------

e ----------------------------------------------------------------
B ----------------------------------------------------------------
G ----------------------------------------------------------------
D -7----7----7-----10-8-5-8---------------------------------------
A -7----7----7-----10-8-5-8---------------------------------------
E -555555555555555-8--6-3-6--------------------------------------- x4

e ----------------------------------------------------------------
B ----------------------------------------------------------------
G ----------------------------------------------------------------
D -10-8--77-5-77-10-88-8-10-8-5-8--77-5-77-10-88-8-7/12/7---------
A -10-8--77-5-77-10-88-8-10-8-5-8--77-5-77-10-88-8-7/12/7---------
E -8--6--55-3-55-8--66-6-8--6-3-6--55-3-55-8--66-6-7/12/7---------

e ----------------------------------------------------------------
B ----------------------------------------------------------------
G ----------------------------------------------------------------
D -7----7----7-----10-8-5-8---------------------------------------
A -7----7----7-----10-8-5-8---------------------------------------
E -555555555555555-8--6-3-6--------------------------------------- x4

e ----------------------------------------------------------------
B ----------------------------------------------------------------
G ----------------------------------------------------------------
D -10-8--77-5-77-10-88-8-10-8-5-8--77-5-77-10-88-8-7/12/7---------
A -10-8--77-5-77-10-88-8-10-8-5-8--77-5-77-10-88-8-7/12/7---------
E -8--6--55-3-55-8--66-6-8--6-3-6--55-3-55-8--66-6-7/12/7---------

e ----------------------------------------------------------------
B ----------------------------------------------------------------
G ----------------------------------------------------------------
D -7-8-10-7-8-10----------7-8-10-7-8-10---------------------------
A -5-6-8--5-6-8--77777777-5-6-8--5-6-8--88888888888-7-------------
E ---------------55555555---------------66666666666-5-------------

e ----------------------------------------------------------------
B ----------------------------------------------------------------
G ----------------------------------------------------------------
D -7-8-10-7-8-10----------7-8-10-7-8-10---------------------------
A -5-6-8--5-6-8--77777777-5-6-8--5-6-8--101010101010101010-10-8-7-
E ---------------55555555---------------8-8-8-8-8-8-8-8-8--8--6-5-

  Visit MetalTabs.com for more metal tablature

bottom separator

Contact Us | Privacy Policy | Disclaimer | Legal Notice
Copyright © 2001-2014 MetalTabs.com. All Rights Reserved.