top separator

Home

Forum

What's New

Submit a Tab

FAQ

Links

Contact Us

Link to Us

MuSpy.com

MetalTabs.com logo

Bands

0-9

A

B

C

D

E

F

G

H

I

J

K

L

M

N

O

P

Q

R

S

T

U

V

W

X

Y

Z

Search

What

Where
 

Toxic Holocaust - "Atomik Destructor" Guitar Tab

Plain Text Version
More Toxic Holocaust Tabs

Hits: 2480
Rated: 5.00 out of 5 (6 votes)
Updated: 2007-08-21 04:05:05

 

By:

Wolfsherz

sendpm.gif

email.gif

Important note
This tab is available online because we obtained explicit permission from Toxic Holocaust or their label.


#----------------------------------PLEASE NOTE---------------------------------#
#This file is the author's own work and represents their interpretation of the #
#song. You may only use this file for private study, scholarship, or research. #
#Unless specified otherwise, this is NOT an official tab from the band members.#
#------------------------------------------------------------------------------#

  Visit MetalTabs.com for more metal tablature
  
Band:  Toxic Holocaust
Album: Evil Never Dies
Song:  Atomik Destruktor

Copyright (c)  Witches Brew 2003

Transcribed By: Wolfsherz/Jens Cautereels
Email:          cautereels.jens@gmail.com

e ----------------------------------------------------------------
B ----------------------------------------------------------------
G ----------------------------------------------------------------
D -2-222-2-2-2-2--2-222-2-222-2-----------------------------------
A -2-222-2-2-2-2--2-222-2-222-2-----------------------------------
E -0-000-0-0-0-0--0-000-0-000-0----------------------------------- x4
     *** * * * *    ***   ***

e ----------------------------------------------------------------
B ----------------------------------------------------------------
G ----------------------------------------------------------------
D -6-5-3----------------------------------------------------------
A -6-5-3----------------------------------------------------------
E -4-3-1----------------------------------------------------------

e ----------------------------------------------------------------
B ----------------------------------------------------------------
G ----------------------------------------------------------------
D -3-2222-5-2222-6-2222-6-5-3-------------------------------------
A -3-2222-5-2222-6-2222-6-5-3-------------------------------------
E -1-0000-3-0000-4-0000-4-3-1------------------------------------- x8
     ****   ****   ****

e ----------------------------------------------------------------
B ----------------------------------------------------------------
G -99999-1010101010-99999-777-121212------------------------------
D -99999-1010101010-99999-777-121212------------------------------
A -77777-8-8-8-8-8--77779-555-101010------------------------------
E ---------------------------------------------------------------- x4

e ----------------------------------------------------------------
B ----------------------------------------------------------------
G ----------------------------------------------------------------
D -3-2222-5-2222-6-2222-6-5-3-------------------------------------
A -3-2222-5-2222-6-2222-6-5-3-------------------------------------
E -1-0000-3-0000-4-0000-4-3-1------------------------------------- x4
     ****   ****   ****

e ----------------------------------------------------------------
B ----------------------------------------------------------------
G --------------------------6-5-3---------------------------------
D -99999-1010101010-99999--------6-5-3----------------------------
A -99999-1010101010-99999-----------------------------------------
E -77777-8-8-8-8-8--77777----------------------------------------- x3

e ----------------------------------------------------------------
B ----------------------------------------------------------------
G ----------------------------------------------------------------
D -99999-1010101010-9-6-5-3---------------------------------------
A -99999-1010101010-9-6-5-3---------------------------------------
E -77777-8-8-8-8-8--7-4-3-1---------------------------------------

e ----------------------------------------------------------------
B ----------------------------------------------------------------
G ----------------------------------------------------------------
D -3-2222-5-2222-6-2222-6-5-3-------------------------------------
A -3-2222-5-2222-6-2222-6-5-3-------------------------------------
E -1-0000-3-0000-4-0000-4-3-1------------------------------------- x4
     ****   ****   ****

e ----------------------------------------------------------------
B ----------------------------------------------------------------
G ----------------------------------------------------------------
D -2-222-2-2-2-2--2-222-2-222-2-----------------------------------
A -2-222-2-2-2-2--2-222-2-222-2-----------------------------------
E -0-000-0-0-0-0--0-000-0-000-0----------------------------------- x4
     *** * * * *    ***   ***
e ----------------------------------------------------------------
B ----------------------------------------------------------------
G ----------------------------------------------------------------
D -6-5-3----------------------------------------------------------
A -6-5-3----------------------------------------------------------
E -4-3-1----------------------------------------------------------

Solo:
Guitar 2:
e ----------------------------------------------------------------
B ----------------------------------------------------------------
G -99999-1010101010-99999-777-121212------------------------------
D -99999-1010101010-99999-777-121212------------------------------
A -77777-8-8-8-8-8--77779-555-101010------------------------------
E ---------------------------------------------------------------- x4

e ----------------------------------------------------------------
B ----------------------------------------------------------------
G ----------------------------------------------------------------
D -3-2222-5-2222-6-2222-6-5-3-------------------------------------
A -3-2222-5-2222-6-2222-6-5-3-------------------------------------
E -1-0000-3-0000-4-0000-4-3-1------------------------------------- x3
     ****   ****   ****

e ----------------------------------------------------------------
B ----------------------------------------------------------------
G ---------------------------------9999-10101010------------------
D -3-2222-5-2222-6-2222-6-5-3-3----9999-10101010-2----------------
A -3-2222-5-2222-6-2222-6-5-3-3----7777-8-8-8-8--2----------------
E -1-0000-3-0000-4-0000-4-3-1-1------------------0----------------
     ****   ****   ****

  Visit MetalTabs.com for more metal tablature

bottom separator

Contact Us | Privacy Policy | Disclaimer | Legal Notice
Copyright © 2001-2014 MetalTabs.com. All Rights Reserved.