top separator

Home

Forum

What's New

Submit a Tab

FAQ

Links

Contact Us

Link to Us

MetalTabs.com logo

Bands

0-9

A

B

C

D

E

F

G

H

I

J

K

L

M

N

O

P

Q

R

S

T

U

V

W

X

Y

Z

Search

What

Where
 

Toxic Holocaust - "Fallout" Guitar Tab

Plain Text Version
More Toxic Holocaust Tabs

Hits: 2086
Rated: 4.67 out of 5 (3 votes)
Updated: 2007-08-21 04:04:30

 

By:

Wolfsherz

sendpm.gif

email.gif

Important note
This tab is available online because we obtained explicit permission from Toxic Holocaust or their label.


#----------------------------------PLEASE NOTE---------------------------------#
#This file is the author's own work and represents their interpretation of the #
#song. You may only use this file for private study, scholarship, or research. #
#Unless specified otherwise, this is NOT an official tab from the band members.#
#------------------------------------------------------------------------------#

  Visit MetalTabs.com for more metal tablature
  
Band:  Toxic Holocaust
Album: Evil Never Dies
Song:  Fallout

Copyright (c)  Witches Brew 2003

Transcribed By: Wolfsherz/Jens Cautereels
Email:          cautereels.jens@gmail.com

e ----------------------------------------------------------------
B ----------------------------------------------------------------
G ----------4------------4-----4/5-----------4------------4-------
D 2-2-3-222-4-2222-3-222-4-2-2-4/5-2-2-3-222-2-2222-3-222-4-2-2-5-
A 2-2-3-222-2-2222-3-222-2-2-2-2/3-2-2-3-222-2-2222-3-222-2-2-2-5-
E 0-0-1-000---0000-1-000---0-0-----0-0-1-000---0000-1-000---0-0-3- x2
  * *   ***   ****   ***   * *     * *   ***   ****   ***   * *
e ----------------------------------------------------------------
B ----------------------------------------------------------------
G ----------------------------------------------------------------
D -2-2-3-222-4-2222-3-222-4-2-2-3-3-------------------------------
A -2-2-3-222-4-2222-3-222-4-2-2-3-3-------------------------------
E -0-0-1-000-2-0000-1-000-2-0-0-1-1------------------------------- x4
   * *   ***   ****   ***   * *
"Background solo":
Guitar 1:
e ----------------------------------------------------------------
B ----------------------------------------------------------------
G -4444-5-4444-7-4444-5-444-7-444-555-----------------------------
D ----------------------------------------------------------------
A ----------------------------------------------------------------
E ---------------------------------------------------------------- x4
Guitar 2:
e ----------------------------------------------------------------
B ----------------------------------------------------------------
G ----------------------------------------------------------------
D -2-2-3-222-4-2222-3-222-4-2-2-3-3-------------------------------
A -2-2-3-222-4-2222-3-222-4-2-2-3-3-------------------------------
E -0-0-1-000-2-0000-1-000-2-0-0-1-1------------------------------- x4
   * *   ***   ****   ***   * *
End
                                  x4
e ----------------------------------|------------------------------
B ----------------------------------|------------------------------
G ----------------------------------|------------------------------
D -2-2-3-222-4-2222-3-222-4-2-2-3-3-|-2----------------------------
A -2-2-3-222-4-2222-3-222-4-2-2-3-3-|-2----------------------------
E -0-0-1-000-2-0000-1-000-2-0-0-1-1-|-0----------------------------
   * *   ***   ****   ***   * *

e ----------------------------------------------------------------
B ----------------------------------------------------------------
G ----------------------------------------------------------------
D -----9-7-------9-7-------9-7------------------------------------
A -7777----9-7777----9-7777----9-7777-5---------------------------
E ----------------------------------------------------------------

e ----------------------------------------------------------------
B ----------------------------------------------------------------
G ----------------------------------------------------------------
D -9999-10-7-9999-10-7-9999-10-7-1010101012121212-----------------
A -7777-8--5-7777-8--5-7777-8--5-8-8-8-8-10101010-----------------
E ----------------------------------------------------------------

e ----------------------------------------------------------------
B ----------------------------------------------------------------
G ----------------------------------------------------------------
D -9999-10-7-9999-10-7-9999-10-7-1212121210101010-----------------
A -7777-8--5-7777-8--5-7777-8--5-101010108-8-8-8------------------
E ----------------------------------------------------------------
Repeat last 2 two times

e ----------------------------------------------------------------
B ----------------------------------------------------------------
G ----------------------------------------------------------------
D -9999---------------------------9999-1010-99-12121212-10101010--
A -7777-1010-99-12121212-10101010-7777-8-8--77-10101010-8-8-8-8---
E ------8-8--77-10101010-8-8-8-8---------------------------------- x4

e ----------------------------------------------------------------
B ----------------------------------------------------------------
G ----------------------------------------------------------------
D -9999-10-7-9999-10-7-9999-10-7-1010101012121212-----------------
A -7777-8--5-7777-8--5-7777-8--5-8-8-8-8-10101010-----------------
E ----------------------------------------------------------------

e ----------------------------------------------------------------
B ----------------------------------------------------------------
G ----------------------------------------------------------------
D -9999-10-7-9999-10-7-9999-10-7-1212121210101010-----------------
A -7777-8--5-7777-8--5-7777-8--5-101010108-8-8-8------------------
E ----------------------------------------------------------------
Repeat last 2 four times

Solo:
Guitar 2
e ----------------------------------------------------------------
B ----------------------------------------------------------------
G ----------------------------------------------------------------
D -9999-10-7-9999-10-7-9999-10-7-9999-10-7------------------------
A -7777-8--5-7777-8--5-7777-8--5-7777-8--5------------------------
E ---------------------------------------------------------------- x2
End

e ----------------------------------------------------------------
B ----------------------------------------------------------------
G ----------------------------------------------------------------
D -9999-10-7-9999-10-7-9999-10-7-1010101012121212-----------------
A -7777-8--5-7777-8--5-7777-8--5-8-8-8-8-10101010-----------------
E ----------------------------------------------------------------

e ----------------------------------------------------------------
B ----------------------------------------------------------------
G ----------------------------------------------------------------
D -9999-10-7-9999-10-7-9999-10-7-1212121210101010-----------------
A -7777-8--5-7777-8--5-7777-8--5-101010108-8-8-8------------------
E ----------------------------------------------------------------
Repeat last 2 two times

e ----------------------------------------------------------------
B ----------------------------------------------------------------
G ----------------------------------------------------------------
D -9999---------------------------9999-1010-99-12121212-10101010--
A -7777-1010-99-12121212-10101010-7777-8-8--77-10101010-8-8-8-8---
E ------8-8--77-10101010-8-8-8-8---------------------------------- x4

e ----------------------------------------------------------------
B ----------------------------------------------------------------
G ----------------------------------------------------------------
D -9999-10-7-9999-10-7-9999-10-7-1010101012121212-----------------
A -7777-8--5-7777-8--5-7777-8--5-8-8-8-8-10101010-----------------
E ----------------------------------------------------------------

e ----------------------------------------------------------------
B ----------------------------------------------------------------
G ----------------------------------------------------------------
D -9999-10-7-9999-10-7-9999-10-7-1212121210101010-----------------
A -7777-8--5-7777-8--5-7777-8--5-101010108-8-8-8------------------
E ----------------------------------------------------------------
Repeat last 2 two times

e ----------------------------------------------------------------
B ----------------------------------------------------------------
G ----------------------------------------------------------------
D -2--------------------------------------------------------------
A -2--------------------------------------------------------------
E -0--------------------------------------------------------------

e ----------------------------------------------------------------
B ----------------------------------------------------------------
G ----------4------------4-----4/5-----------4------------4-------
D 2-2-3-222-4-2222-3-222-4-2-2-4/5-2-2-3-222-2-2222-3-222-4-2-2-5-
A 2-2-3-222-2-2222-3-222-2-2-2-2/3-2-2-3-222-2-2222-3-222-2-2-2-5-
E 0-0-1-000---0000-1-000---0-0-----0-0-1-000---0000-1-000---0-0-3- x2
  * *   ***   ****   ***   * *     * *   ***   ****   ***   * *

Solo:
Guitar 1:
e ----------------------------------------------------------------
B -------------------------------------13-12----13-12-------------
G ----------10-9----10-9-7----------------------------12-9--------
D ------10-9--------------10-9-7----------------------------------
A -7-----------------------------10-7-----------------------------
E ----------------------------------------------------------------
Guitar 2:
e ----------------------------------------------------------------
B ----------------------------------------------------------------
G ----------4------------4-----4/5-----------4------------4-------
D 2-2-3-222-4-2222-3-222-4-2-2-4/5-2-2-3-222-2-2222-3-222-4-2-2-5-
A 2-2-3-222-2-2222-3-222-2-2-2-2/3-2-2-3-222-2-2222-3-222-2-2-2-5-
E 0-0-1-000---0000-1-000---0-0-----0-0-1-000---0000-1-000---0-0-3- x2
  * *   ***   ****   ***   * *     * *   ***   ****   ***   * *
End
Outro:
e ----------------------------------------------------------------
B ----------------------------------------------------------------
G ----------------------------------------------------------------
D -2-2-3-222-4-2222-3-222-4-2-2-3-3-------------------------------
A -2-2-3-222-4-2222-3-222-4-2-2-3-3-------------------------------
E -0-0-1-000-2-0000-1-000-2-0-0-1-1------------------------------- x4
   * *   ***   ****   ***   * *
   DROP      THE    BOMB

  Visit MetalTabs.com for more metal tablature

bottom separator

Contact Us | Privacy Policy | Disclaimer | Legal Notice
Copyright © 2001-2014 MetalTabs.com. All Rights Reserved.