top separator

Home

Forum

What's New

Submit a Tab

FAQ

Links

Contact Us

Link to Us

MetalTabs.com logo

Bands

0-9

A

B

C

D

E

F

G

H

I

J

K

L

M

N

O

P

Q

R

S

T

U

V

W

X

Y

Z

Search

What

Where
 

Toxic Holocaust - "Summon The Beast" Guitar Tab

Plain Text Version
More Toxic Holocaust Tabs

Hits: 2579
Rated: 4.57 out of 5 (7 votes)
Updated: 2007-08-21 04:03:26

 

By:

Wolfsherz

sendpm.gif

email.gif

Important note
This tab is available online because we obtained explicit permission from Toxic Holocaust or their label.


#----------------------------------PLEASE NOTE---------------------------------#
#This file is the author's own work and represents their interpretation of the #
#song. You may only use this file for private study, scholarship, or research. #
#Unless specified otherwise, this is NOT an official tab from the band members.#
#------------------------------------------------------------------------------#

  Visit MetalTabs.com for more metal tablature
  
Band:  Toxic Holocaust
Album: Evil Never Dies
Song:  Summon the Beast

Copyright (c)  Witches Brew 2003

Transcribed By: Wolfsherz/Jens Cautereels
Email:          cautereels.jens@gmail.com

e ----------------------------------------------------------------
B ----------------------------------------------------------------
G ----------------------------------------------------------------
D -2--------22-8--------88-2--------------------------------------
A -2--------22-8--------88-2--------------------------------------
E -0--------00-6--------66-0-------------------------------------- x2
            **          **

e ----------------------------------------------------------------
B ----------------------------------------------------------------
G ----------------------------------------------------------------
D -7/12/7--7/15/7-------------------------------------------------
A -7/12/7--7/15/7-------------------------------------------------
E -7/12/7--7/15/7-------------------------------------------------

e ----------------------------------------------------------------
B ----------------------------------------------------------------
G -------------------------------------------5-3------------------
D -22222-2222--22222-2222--22222-2222--22222-5-3------------------
A -22222-2222--22222-2222--22222-2222--22222-3-1-5-3--------------
E -00000-0000--00000-0000--00000-0000--00000---------------------- x4

e ----------------------------------------------------------------
B ----------------------------------------------------------------
G ----------------------------------------------------------------
D -5-3-0-2-2222-5-3-0-2-2222-5-3-0-2-222222222222-----------------
A -5-3-0-2-2222-5-3-0-2-2222-5-3-0-2-222222222222-----------------
E ---------0000---------0000---------000000000000----------------- x2
           ****         ****         *********

e ----------------------------------------------------------------
B ----------------------------------------------------------------
G ----------------------5-3---------------------------------------
D -2--------22-8--------5-3---------------------------------------
A -2--------22-8--------3-1---------------------------------------
E -0--------00-6--------------------------------------------------
            **

e ----------------------------------------------------------------
B ----------------------------------------------------------------
G ----------------------------------------------------------------
D -5-3-0-2-2222-5-3-0-2-2222-5-3-0-2-222222222222-----------------
A -5-3-0-2-2222-5-3-0-2-2222-5-3-0-2-222222222222-----------------
E ---------0000---------0000---------000000000000----------------- x4
           ****         ****         *********

e ----------------------------------------------------------------
B ----------------------------------------------------------------
G ----------------------------------------------------------------
D -8-7-8-10-2222--8-7-(2)-5-2222--8-7-8-10-222222222222-----------
A -8-7-8-10-2222--8-7-(2)-5-2222--8-7-8-10-222222222222-8-7-5-----
E -6-5-6-8--0000--6-5-(0)-3-0000--6-5-6-8--000000000000-----------
            ****            ****           ************

e ----------------------------------------------------------------
B ----------------------------------------------------------------
G ----------------------------------------------------------------
D -5-3-0-2-2222-5-3-0-2-2222-5-3-0-2-222222222222-----------------
A -5-3-0-2-2222-5-3-0-2-2222-5-3-0-2-222222222222-----------------
E ---------0000---------0000---------000000000000-----------------
           ****         ****         *********
e ----------------------------------------------------------------
B ----------------------------------------------------------------
G ----------------------------------------------------------------
D -8-777-7-77--8-7-8-777-7-77--8-7-8-777-7-77777777-3-3-3---------
A -8-777-7-77--8-7-8-777-7-77--8-7-8-777-7-77777777-3-3-3---------
E -6-555-5-55--6-5-6-555-5-55--6-5-6-555-5-55555555-1-1-1--------- x2
     ***   **        ***   **        ***   ********

e ----------------------------------------------------------------
B ----------------------------------------------------------------
G ----------------------------------------------------------------
D -5-3-0-2-2222-5-3-0-2-2222-5-3-0-2-222222222222-----------------
A -5-3-0-2-2222-5-3-0-2-2222-5-3-0-2-222222222222-----------------
E ---------0000---------0000---------000000000000----------------- x4
           ****         ****         *********

e ----------------------------------------------------------------
B ----------------------------------------------------------------
G ----------------------------------------------------------------
D -8-7-8-10-2222--8-7-(2)-5-2222--8-7-8-10-222222222222-----------
A -8-7-8-10-2222--8-7-(2)-5-2222--8-7-8-10-222222222222-8-7-5-----
E -6-5-6-8--0000--6-5-(0)-3-0000--6-5-6-8--000000000000-----------
            ****            ****           ************

e ----------------------------------------------------------------
B ----------------------------------------------------------------
G ----------------------------------------------------------------
D -5-3-0-2-2222-5-3-0-2-2222-5-3-0-2-222222222222-----------------
A -5-3-0-2-2222-5-3-0-2-2222-5-3-0-2-222222222222-----------------
E ---------0000---------0000---------000000000000-----------------
           ****         ****         *********

e ----------------------------------------------------------------
B ----------------------------------------------------------------
G ----------------------------------------------------------------
D -8-777-7-77--8-7-8-777-7-77--8-7-8-777-7-77777777-3-3-3---------
A -8-777-7-77--8-7-8-777-7-77--8-7-8-777-7-77777777-3-3-3---------
E -6-555-5-55--6-5-6-555-5-55--6-5-6-555-5-55555555-1-1-1--------- x2
     ***   **        ***   **        ***   ********
Break
e ----------------------------------------------------------------
B ----------------------------------------------------------------
G ----------------------9999---------------10101010-12121212------
D -3-2222-5-2222-7-2222-9999-3-2222-5-2222-10101010-12121212------
A -3-2222-5-2222-7-2222-7777-3-2222-5-2222-8-8-8-8--10101010------
E -1-0000-3-0000-5-0000------1-0000-3-0000------------------------
     ****   ****   ****        ****   ****

e ----------------------------------------------------------------
B ----------------------------------------------------------------
G ----------------------9999---------------10101010-12------------
D -3-2222-5-2222-7-2222-9999-3-2222-5-2222-10101010-12------------
A -3-2222-5-2222-7-2222-7777-3-2222-5-2222-8-8-8-8--10------------
E -1-0000-3-0000-5-0000------1-0000-3-0000------------------------
     ****   ****   ****        ****   ****

e ----------------------------------------------------------------
B ----------------------------------------------------------------
G ----------------------9999---------------10101010-12121212------
D -3-2222-5-2222-7-2222-9999-3-2222-5-2222-10101010-12121212------
A -3-2222-5-2222-7-2222-7777-3-2222-5-2222-8-8-8-8--10101010------
E -1-0000-3-0000-5-0000------1-0000-3-0000------------------------ x3
     ****   ****   ****        ****   ****

e ----------------------------------------------------------------
B ----------------------------------------------------------------
G ----------------------9999---------------10101010-12121212------
D -3-2222-5-2222-7-2222-9999-3-2222-5-2222-10101010-12121212------
A -3-2222-5-2222-7-2222-7777-3-2222-5-2222-8-8-8-8--10101010------
E -1-0000-3-0000-5-0000------1-0000-3-0000------------------------ x3
     ****   ****   ****        ****   ****

e ----------------------------------------------------------------
B ----------------------------------------------------------------
G ----------------------9999--------------------------------------
D -3-2222-5-2222-7-2222-9999-3-2222-5-2222-5555-3333--------------
A -3-2222-5-2222-7-2222-7777-3-2222-5-2222-5555-3333--------------
E -1-0000-3-0000-5-0000------1-0000-3-0000-3333-1111--------------
     ****   ****   ****        ****   ****
Break end

e ----------------------------------------------------------------
B ----------------------------------------------------------------
G ----------------------------------------------------------------
D -5-3-0-2-2222-5-3-0-2-2222-5-3-0-2-222222222222-----------------
A -5-3-0-2-2222-5-3-0-2-2222-5-3-0-2-222222222222-----------------
E ---------0000---------0000---------000000000000----------------- x4
           ****         ****         *********

e ----------------------------------------------------------------
B ----------------------------------------------------------------
G ----------------------------------------------------------------
D -8-7-8-10-2222--8-7-(2)-5-2222--8-7-8-10-222222222222-----------
A -8-7-8-10-2222--8-7-(2)-5-2222--8-7-8-10-222222222222-8-7-5-----
E -6-5-6-8--0000--6-5-(0)-3-0000--6-5-6-8--000000000000-----------
            ****            ****           ************

e ----------------------------------------------------------------
B ----------------------------------------------------------------
G ----------------------------------------------------------------
D -5-3-0-2-2222-5-3-0-2-2222-5-3-0-2-222222222222-----------------
A -5-3-0-2-2222-5-3-0-2-2222-5-3-0-2-222222222222-----------------
E ---------0000---------0000---------000000000000-----------------
           ****         ****         *********

e ----------------------------------------------------------------
B ----------------------------------------------------------------
G ----------------------------------------------------------------
D -8-777-7-77--8-7-8-777-7-77--8-7-8-777-7-77777777-3-3-3---------
A -8-777-7-77--8-7-8-777-7-77--8-7-8-777-7-77777777-3-3-3---------
E -6-555-5-55--6-5-6-555-5-55--6-5-6-555-5-55555555-1-1-1--------- x2
     ***   **        ***   **        ***   ********

End:
e ----------------------------------------------------------------
B ----------------------------------------------------------------
G ----------------------9999--------------------------------------
D -3-2222-5-2222-7-2222-9999--------------------------------------
A -3-2222-5-2222-7-2222-7777--------------------------------------
E -1-0000-3-0000-5-0000------------------------------------------- x3
     ****   ****   ****
e ----------------------------------------------------------------
B ----------------------------------------------------------------
G ----------------10101010-12-------------------------------------
D --3-2222-5-2222-10101010-12-------------------------------------
A --3-2222-5-2222-8-8-8-8--10-------------------------------------
E --1-0000-3-0000-------------------------------------------------
      ****   ****

  Visit MetalTabs.com for more metal tablature

bottom separator

Contact Us | Privacy Policy | Disclaimer | Legal Notice
Copyright © 2001-2014 MetalTabs.com. All Rights Reserved.