top separator

Home

Forum

What's New

Submit a Tab

FAQ

Links

Contact Us

Link to Us

MuSpy.com

MetalTabs.com logo

Bands

0-9

A

B

C

D

E

F

G

H

I

J

K

L

M

N

O

P

Q

R

S

T

U

V

W

X

Y

Z

Search

What

Where
 

Toxic Holocaust - "Dead To The World" Guitar Tab

Plain Text Version
More Toxic Holocaust Tabs

Hits: 1960
Rated: 5.00 out of 5 (4 votes)
Updated: 2007-08-21 04:03:08

 

By:

Wolfsherz

sendpm.gif

email.gif

Important note
This tab is available online because we obtained explicit permission from Toxic Holocaust or their label.


#----------------------------------PLEASE NOTE---------------------------------#
#This file is the author's own work and represents their interpretation of the #
#song. You may only use this file for private study, scholarship, or research. #
#Unless specified otherwise, this is NOT an official tab from the band members.#
#------------------------------------------------------------------------------#

  Visit MetalTabs.com for more metal tablature
  
Band:  Toxic Holocaust
Album: Evil Never Dies
Song:  Dead to the World

Copyright (c)  Witches Brew 2003

Transcribed By: Wolfsherz/Jens Cautereels
Email:          cautereels.jens@gmail.com

e ----------------------------------------------------------------
B ----------------------------------------------------------------
G ----------------------------------------------------------------
D --------------3-5-7------------3-5-7------------3-5------10-12--
A --------------3-5-7------------3-5-7------------3-5------10-12--
E -555555555555-1-3-555555555555-1-3-555555555555-1-3-5b---8--10--

e ----------------------------------------------------------------
B ----------------------------------------------------------------
G ----------------------------------------------------------------
D -7----7----7----7-3-5-------------------------------------------
A -7----7----7----7-3-5-------------------------------------------
E -5555555555555555-1-3------------------------------------------- x4

e ----------------------------------------------------------------
B ----------------------------------------------------------------
G ----------------------------------------------------------------
D -77777888881010101010-12/7--------------------------------------
A -77777888881010101010-12/7--------------------------------------
E -55555666668-8-8-8-8--10/5-------------------------------------- x4

e ----------------------------------------------------------------
B ----------------------------------------------------------------
G ----------------------------------------------------------------
D -2--------------------------------------------------------------
A -2--------------------------------------------------------------
E -0-------------------------------------------------------------- x4

e ----------------------------------------------------------------
B ----------------------------------------------------------------
G ----------------------------------------------------------------
D -7----7----7----7-3-5-------------------------------------------
A -7----7----7----7-3-5-------------------------------------------
E -5555555555555555-1-3------------------------------------------- x4

e ----------------------------------------------------------------
B ----------------------------------------------------------------
G -7777-5555-44444------------------------------------------------
D -5555-3333-22222-55---------------------------------------------
A -----------------33---------------------------------------------
E-----------------------------------------------------------------

e ----------------------------------------------------------------
B ----------------------------------------------------------------
G ----------------------------------------------------------------
D -7----7----7----7-3-5-------------------------------------------
A -7----7----7----7-3-5-------------------------------------------
E -5555555555555555-1-3------------------------------------------- x4

e ----------------------------------------------------------------
B ----------------------------------------------------------------
G ----------------------------------------------------------------
D -77777888881010101010-12/7--------------------------------------
A -77777888881010101010-12/7--------------------------------------
E -55555666668-8-8-8-8--10/5-------------------------------------- x4

e ----------------------------------------------------------------
B ----------------------------------------------------------------
G ----------------------------------------------------------------
D -2-2----333-2---------------------------------------------------
A -2-2----333-2---(pick-slide-over-E-and-A-strings)---------------
E -0-0----111-0--------------------------------------------------- x2

e ----------------------------------------------------------------
B ----------------------------------------------------------------
G ----------------------------------------------------------------
D -7----7----7----7-3-5-------------------------------------------
A -7----7----7----7-3-5-------------------------------------------
E -5555555555555555-1-3------------------------------------------- x3

e ----------------------------------------------------------------
B ----------------------------------------------------------------
G ----------------------------------------------------------------
D -7----7----88888888---------------------------------------------
A -7----7----88888888---------------------------------------------
E -555555555566666666---------------------------------------------

e ----------------------------------------------------------------
B ----------------------------------------------------------------
G ----------------------------------------------------------------
D -7----7----7----7-3-5-------------------------------------------
A -7----7----7----7-3-5-------------------------------------------
E -5555555555555555-1-3------------------------------------------- x4

e ----------------------------------------------------------------
B ----------------------------------------------------------------
G -7777-5555-44444------------------------------------------------
D -5555-3333-22222-55---------------------------------------------
A -----------------33---------------------------------------------
E-----------------------------------------------------------------

e ----------------------------------------------------------------
B ----------------------------------------------------------------
G ----------------------------------------------------------------
D -7----7----7----7-3-5-------------------------------------------
A -7----7----7----7-3-5-------------------------------------------
E -5555555555555555-1-3------------------------------------------- x4

e ----------------------------------------------------------------
B ----------------------------------------------------------------
G ----------------------------------------------------------------
D -77777888881010101010-12/7--------------------------------------
A -77777888881010101010-12/7--------------------------------------
E -55555666668-8-8-8-8--10/5-------------------------------------- x4

e ----------------------------------------------------------------
B ----------------------------------------------------------------
G ----------------------------------------------------------------
D -2-2----333-2---------------------------------------------------
A -2-2----333-2---(pick-slide-over-E-and-A-strings)---------------
E -0-0----111-0--------------------------------------------------- x2

e ----------------------------------------------------------------
B ----------------------------------------------------------------
G ----------------------------------------------------------------
D -3-33333333333333-5-6-------------------------------------------
A -3-33333333333333-5-6-------------------------------------------
E -1-11111111111111-3-4-------------------------------------------
     **************
Solo:
Guitar 1:
e ----------------------------------------------------------------
B ----------------------------------------------------------------
G -4-222-5-222-4-2-5-2-4-222---4-222-5-222-4-2-5-2-4-222----------
D -----------------------------(after-this-pick-slide-on-D-and-G)-
A ----------------------------------------------------------------
E ----------------------------------------------------------------
Guitar 2:
e ----------------------------------------------------------------
B ----------------------------------------------------------------
G ----------------------------------------------------------------
D -7----7----7----7-3-5-------------------------------------------
A -7----7----7----7-3-5-------------------------------------------
E -5555555555555555-1-3------------------------------------------- x4
Solo end

e ----------------------------------------------------------------
B ----------------------------------------------------------------
G ----------------------------------------------------------------
D -77777888881010101010-12/7--------------------------------------
A -77777888881010101010-12/7--------------------------------------
E -55555666668-8-8-8-8--10/5-------------------------------------- x4

e ----------------------------------------------------------------
B ----------------------------------------------------------------
G ----------------------------------------------------------------
D -2-2----333-2---------------------------------------------------
A -2-2----333-2---(pick-slide-over-E-and-A-strings)---------------
E -0-0----111-0--------------------------------------------------- x4

e ----------------------------------------------------------------
B ----------------------------------------------------------------
G ----------------------------------------------------------------
D -22222222--7==/3------------------------------------------------
A -22222222--7==/3------------------------------------------------
E -00000000--5==/1------------------------------------------------
   ********

  Visit MetalTabs.com for more metal tablature

bottom separator

Contact Us | Privacy Policy | Disclaimer | Legal Notice
Copyright © 2001-2014 MetalTabs.com. All Rights Reserved.