top separator

Home

Forum

What's New

Submit a Tab

FAQ

Links

Contact Us

Link to Us

MuSpy.com

MetalTabs.com logo

Bands

0-9

A

B

C

D

E

F

G

H

I

J

K

L

M

N

O

P

Q

R

S

T

U

V

W

X

Y

Z

Search

What

Where
 

Toxic Holocaust - "Damned To Fire" Guitar Tab

Plain Text Version
More Toxic Holocaust Tabs

Hits: 2035
Rated: 3.67 out of 5 (3 votes)
Updated: 2007-08-21 04:02:42

 

By:

Wolfsherz

sendpm.gif

email.gif

Important note
This tab is available online because we obtained explicit permission from Toxic Holocaust or their label.


#----------------------------------PLEASE NOTE---------------------------------#
#This file is the author's own work and represents their interpretation of the #
#song. You may only use this file for private study, scholarship, or research. #
#Unless specified otherwise, this is NOT an official tab from the band members.#
#------------------------------------------------------------------------------#

  Visit MetalTabs.com for more metal tablature
  
Band:  Toxic Holocaust
Album: Evil Never Dies
Song:  Damned to Fire

Copyright (c)  Witches Brew 2003

Transcribed By: Wolfsherz/Jens Cautereels
Email:          cautereels.jens@gmail.com

Tuning: EADGBe

e ---------------------------------------------------------------
B ---------------------------------------------------------------
G ---------------------------------------------------------------
D -8-7-2----5----7----5----8-7-----------------------------------
A -8-7-2----5----7----5----8-7-----------------------------------
E -6-5-0----3----5----3----6-5-----------------------------------

e ---------------------------------------------------------------
B ---------------------------------------------------------------
G -------------------7/8/7---------------------------------------
D -2-2222-8-22222222-7/8/7-2-2222-8-2222-3-3-5555----------------
A -2-2222-8-22222222-5/6/5-2-2222-8-2222-3-3-5555----------------
E -0-0000-6-00000000-------0-0000-6-0000-1-1-3333---------------- x2
     ****   ********         ****   ****
e ---------------------------------------------------------------
B ---------------------------------------------------------------
G ---------------------------------------------------------------
D -2-2222-8-222222-3333------------------------------------------
A -2-2222-8-222222-3333------------------------------------------
E -0-0000-6-000000-1111------------------------------------------ x3

e ---------------------------------------------------------------
B ---------------------------------------------------------------
G ---------------------------------------------------------------
D -2-2222-8------------------------------------------------------
A -2-2222-8-8-7-5------------------------------------------------
E -0-0000-6-------8-7-5-3----------------------------------------

e ---------------------------------------------------------------
B ---------------------------------------------------------------
G ---------------------------------------------------------------
D -2-2222-8-22222222---------2-2222-8-22222222-3333--------------
A -2-2222-8-22222222-----1-0-2-2222-8-22222222-3333--------------
E -0-0000-6-00000000-1-3-----0-0000-6-00000000-1111-------------- x2

e ---------------------------------------------------------------
B ---------------------------------------------------------------
G ---------------------------------------------------------------
D -55555555-44444444---------------------------------------------
A -55555555-44444444---------------------------------------------
E -33333333-22222222---------------------------------------------

Solo:
Guitar 1:
e ---------------------------------------------------------------
B -21212121-19-17--21212121-19-17--21212121-19-17----------------
G -(4-21's)------------------------------------------------------
D ---------------------------------------------------------------
A ---------------------------------------------------------------
E --------------------------------------------------------------- x2
cont:
e ---------------------------------------------------------------
B -21212121-19-17--21212121-22-22/7------------------------------
G ---------------------------------------------------------------
D ---------------------------------------------------------------
A ---------------------------------------------------------------
E ---------------------------------------------------------------

Guitar 2:
e ---------------------------------------------------------------
B ---------------------------------------------------------------
G ---------------------------------------------------------------
D -2-2222-8-22222222-3333-2222-3-222-8-7-5-3---------------------
A -2-2222-8-22222222-3333-2222-3-222-8-7-5-3---------------------
E -0-0000-6-00000000-1111-0000-1-000-6-5-3-1---------------------
solo end

e ---------------------------------------------------------------
B ---------------------------------------------------------------
G ---------------------------------------------------------------
D -2-2222-8-22222222---------2-2222-8-22222222-3333--------------
A -2-2222-8-22222222-----1-0-2-2222-8-22222222-3333--------------
E -0-0000-6-00000000-1-3-----0-0000-6-00000000-1111-------------- x2

e ---------------------------------------------------------------
B ---------------------------------------------------------------
G ---------------------------------------------------------------
D -55555555-44444444---------------------------------------------
A -55555555-44444444---------------------------------------------
E -33333333-22222222---------------------------------------------

e ---------------------------------------------------------------
B ---------------------------------------------------------------
G ---------------------------------------------------------------
D -2-2222-8-22222222---------2-2222-8-22222222-3333--------------
A -2-2222-8-22222222-----1-0-2-2222-8-22222222-3333--------------
E -0-0000-6-00000000-1-3-----0-0000-6-00000000-1111-------------- x2

e ---------------------------------------------------------------
B ---------------------------------------------------------------
G -------------------77777777-66666666---------------------------
D -55555555-44444444-77777777-66666666---------------------------
A -55555555-44444444-55555555-44444444---------------------------
E -33333333-22222222--------------------5/10/5-------------------

e ---------------------------------------------------------------
B ---------------------------------------------------------------
G ---------------------------------------------------------------
D -2-22-3-2222-2-222---------------------------------------------
A -2-22-3-2222-2-222---------------------------------------------
E -0-00-1-0000-0-000--------------------------------------------- x4
   * **   **** * ***
e ---------------------------------------------------------------
B ---------------------------------------------------------------
G ---------------------------------------------------------------
D -2----5-8-7----------------------------------------------------
A -2----5-8-7----------------------------------------------------
E -0----3-6-5---------------------------------------------------- x4

e ---------------------------------------------------------------
B ---------------------------------------------------------------
G ---------------------------------------------------------------
D -2-2222-8-22222222---------2-2222-8-22222222-3333--------------
A -2-2222-8-22222222-----1-0-2-2222-8-22222222-3333--------------
E -0-0000-6-00000000-1-3-----0-0000-6-00000000-1111-------------- x2

End:
Guitar 1:
e ---------------------------------------------------------------
B ---------------------------------------------------------------
G ------------3--------------------------------------------------
D -2222-5-222----------------------------------------------------
A --------------3333---------------------------------------------
E --------------------------------------------------------------- x2

e ---------------------------------------------------------------
B ------------6--------------------------------------------------
G -4444-7-444----------------------------------------------------
D --------------5555---------------------------------------------
A ---------------------------------------------------------------
E --------------------------------------------------------------- x2

Guitar 2:
e ---------------------------------------------------------------
B ---------------------------------------------------------------
G ---------------------------------------------------------------
D -2-2222-8-222-2-2222-------------------------------------------
A -2-2222-8-222-2-2222-------------------------------------------
E -0-0000-6-000-0-0000------------------------------------------- x3

e ---------------------------------------------------------------
B ---------------------------------------------------------------
G ---------------------------------------------------------------
D -2-2222-8-222-8-7-5-3-5-2--------------------------------------
A -2-2222-8-222-8-7-5-3-5-2--------------------------------------
E -0-0000-6-000-6-5-3-1-3-0--------------------------------------

  Visit MetalTabs.com for more metal tablature

bottom separator

Contact Us | Privacy Policy | Disclaimer | Legal Notice
Copyright © 2001-2014 MetalTabs.com. All Rights Reserved.