top separator

Home

Forum

FAQ

Contact Us

Link to Us

MetalTabs.com logo

Bands

0-9

A

B

C

D

E

F

G

H

I

J

K

L

M

N

O

P

Q

R

S

T

U

V

W

X

Y

Z

Windir - "Soknardalr" Guitar Tab

Plain Text Version
More Windir Tabs

Hits: 573
Updated: 2007-08-21 03:57:16

By:

Tyraeon


#----------------------------------PLEASE NOTE---------------------------------#
#This file is the author's own work and represents their interpretation of the #
#song. You may only use this file for private study, scholarship, or research. #
#Unless specified otherwise, this is NOT an official tab from the band members.#
#------------------------------------------------------------------------------#

  Visit MetalTabs.com for more metal tablature
  
Band:  Windir
Album: Sˇknardalr
Song:  Sˇknardalr

Copyright (c)  Head Not Found / Voices of Wonder 1997
 Version 1.0 - 6/22/07

Transcribed By: Tyraeon
Email: tyraeon@hotmail.com

.  - palm mute           /  - slide up to
\  - slide down to       ~  - vibrato
h  - hammer on           b  - Bend
p  - pull off            Suffixes for bend
t  - tap                 f  - full bend    h - half bend
ph - pinched harmonic    q  - quarter bend t - tap bend
*  - see comment         ^  - Hold bend    r release bend
x  - Stuccatto           ~  - vibrato bend
,  - slight palm mute    () - ghost note, sustained note
"  - tremolo note        <> - Trill

Tuning E A D G B E

|-------------------------------------------------------------------|
|-----------------------------------------3-3-1------1-3------------|
|---0------3-3-2-0--2-3-0-2----------0--0-------2--3-----3-2-0--2---|
|-0---4-0-------------------4-0--4-4--------------------------------|
|-------------------------------------------------------------------|
|-------------------------------------------------------------------|

 -------------------|
 -------------------|
 -3-0-2----------0--|
 -------4-0--4-4----|
 -------------------|
 -------------------|

END

  Visit MetalTabs.com for more metal tablature

bottom separator

Contact Us | Privacy Policy | Disclaimer
Copyright © 2001-2014 MetalTabs.com. All Rights Reserved.