top separator

Home

Forum

What's New

Submit a Tab

FAQ

Links

Contact Us

Link to Us

MuSpy.com

MetalTabs.com logo

Bands

0-9

A

B

C

D

E

F

G

H

I

J

K

L

M

N

O

P

Q

R

S

T

U

V

W

X

Y

Z

Search

What

Where
 

Cumgun - "Rottes Ma Dèche" Guitar Tab

Plain Text Version
More Cumgun Tabs

Hits: 2804
Rated: 5.00 out of 5 (1 vote)
Updated: 2007-06-24 23:34:24

 

By:

goatman

sendpm.gif

email.gif

Important note
This tab is available online because we obtained explicit permission from Cumgun or their label.


#----------------------------------PLEASE NOTE---------------------------------#
#This file is the author's own work and represents their interpretation of the #
#song. You may only use this file for private study, scholarship, or research. #
#Unless specified otherwise, this is NOT an official tab from the band members.#
#------------------------------------------------------------------------------#

  Visit MetalTabs.com for more metal tablature
  
Band:  (CUMGUN)
Album: (SUCK THE GUTS FROM MY SLUT)
Song:  (ROTTES MA DECHE)

Copyright (c)  (SELF RELEASED) (2005)

Transcribed By: (GOATMAN)
Email:          (VIRUS010891@AOL.COM)


.  - palm mute           /  - slide up to      r  - one beat rest


Tuning: A standard
                             x6                            x4
|-----------------------------|-----------------------------|
|.---------------------------.|.---------------------------.|
|--5/6--4--5--4-6-5-4-5-6--3--|--5-6--4--5--4-6-5-4-5-6--3--|
|--3/4--2--3--2-4-3-2-3-4--1--|--3-4--2--3--2-4-3-2-3-4--1--|
|.-3/4--2--3--2-4-3-2-3-4--1-.|.-3-4--2--3--2-4-3-2-3-4--1-.|
|-----------------------------|-----------------------------|
                    . . .        . .  .  .  . . . . . .  .
                     x4                                              x4
|---------------------|--------------|--------------------------------|
|.-------------------.|--------------|.------------------------------.|
|--66-3-3-3-2-22-3-2--|--------------|--5-4--3--4--3--4--3--4--5-4-3--|
|--44-1-1-1-0-00-1-0--|--r--r--r--r--|--3-2--1--2--1--2--1--2--3-2-1--|
|.-44-1-1-1-0-00-1-0-.|--------------|.-3-2--1--2--1--2--1--2--3-2-1-.|
|---------------------|--------------|--------------------------------|
   .. . . . . .. . .                    . .  .  .  .  .  .  .  . .
                     x4
|---------------------|
|.-------------------.|
|--66-3-3-3-2-22-3-2--|
|--44-1-1-1-0-00-1-0--|
|.-44-1-1-1-0-00-1-0-.|
|---------------------|
   .. . . . . .. . .

  Visit MetalTabs.com for more metal tablature

bottom separator

Contact Us | Privacy Policy | Disclaimer | Legal Notice
Copyright © 2001-2014 MetalTabs.com. All Rights Reserved.