top separator

Home

Forum

What's New

Submit a Tab

FAQ

Links

Contact Us

Link to Us

MuSpy.com

MetalTabs.com logo

Bands

0-9

A

B

C

D

E

F

G

H

I

J

K

L

M

N

O

P

Q

R

S

T

U

V

W

X

Y

Z

Search

What

Where
 

Akercocke - "The Dark Inside" Guitar Tab

Plain Text Version
More Akercocke Tabs

Hits: 2540
Rated: 4.50 out of 5 (2 votes)
Updated: 2007-08-21 04:06:36

 

By:

Robbie Filth

sendpm.gif

email.gif

Important note
This tab is available online because we obtained explicit permission from Akercocke or their label.


#----------------------------------PLEASE NOTE---------------------------------#
#This file is the author's own work and represents their interpretation of the #
#song. You may only use this file for private study, scholarship, or research. #
#Unless specified otherwise, this is NOT an official tab from the band members.#
#------------------------------------------------------------------------------#

  Visit MetalTabs.com for more metal tablature
  
Band: Akercocke
Album: Antichrist
Song: The Dark Inside
Tuning: C F A# D# G C
Record Label: Earache



-------------------
-------------------
-------------------
-7-8---------5-4---
-----7-6-6-5-------
-------------------
 pm. . . . . . .


------------------------------------------------------------------
------------------------------------------------------------------
------------------------------------------------------------------
------------------------------------------------------------------
-------------------------------------------------1-1-1-1-3-3-3-3--
-2-2-2-3-2-2-2-2-2-2-2-2-2-2-2-2-2-2-2-3-2-2-2-2------------------
 trem...........................................................

------------------------------------------------------------------
------------------------------------------------------------------
------------------------------------------------------------------
------------------------------------------------------------------
-------------------------------------------------1-1-1-1----------
-2-2-2-3-2-2-2-2-2-2-2-2-2-2-2-2-2-2-2-3-2-2-2-2---------3-3-3-3--
 trem...........................................................

------------------------------------------------------------------
------------------------------------------------------------------
------------------------------------------------------------------
------------------------------------------------------------------
-------------------------------------------------1-1-1-1-3-3-3-3--
-2-2-2-3-2-2-2-2-2-2-2-2-2-2-2-2-2-2-2-3-2-2-2-2------------------
 trem...........................................................

------------------------------------------------------------------
------------------------------------------------------------------
------------------------------------------------------------------
------------------------------------------------------------------
-------------------------------------------------1-1-1-1----------
-2-2-2-3-2-2-2-2-2-2-2-2-2-2-2-2-2-2-2-3-2-2-2-2---------3-3-3-3--
 trem...........................................................

------------------------------------------------------------------
------------------------------------------------------------------
------------------------------------------------------------------
------------------------------------------------------------------
-2-2-2-2-1-1---------------------1-1-1-1-0-0----------------------
-------------3-3-2-2-2-2-2-2-2-2-------------3-3-2-2-2-2-2-2-2-2--
 trem...........................................................

--------------------------------------------------
--------------------------------------------------
--------------------------------------------------
--------------------------------------------------
-2-2-2-2-1-1---------------------1-1-1-1-0-0------
-------------3-3-2-2-2-2-2-2-2-2-------------3-3--
 trem............................................

------------------------------------------------------------------
------------------------------------------------------------------
------------------------------------------------------------------
------------------------------------------------------------------
-------------------------------------------------1-1-1-1-3-3-3-3--
-2-2-2-3-2-2-2-2-2-2-2-2-2-2-2-2-2-2-2-3-2-2-2-2------------------
 trem...........................................................

------------------------------------------------------------------
------------------------------------------------------------------
------------------------------------------------------------------
------------------------------------------------------------------
-------------------------------------------------1-1-1-1----------
-2-2-2-3-2-2-2-2-2-2-2-2-2-2-2-2-2-2-2-3-2-2-2-2---------3-3-3-3--
 trem...........................................................

------------------------------------------------------------------
------------------------------------------------------------------
------------------------------------------------------------------
------------------------------------------------------------------
-------------------------------------------------1-1-1-1-3-3-3-3--
-2-2-2-3-2-2-2-2-2-2-2-2-2-2-2-2-2-2-2-3-2-2-2-2------------------
 trem...........................................................

------------------------------------------------------------------
------------------------------------------------------------------
------------------------------------------------------------------
------------------------------------------------------------------
-------------------------------------------------1-1-1-1----------
-2-2-2-3-2-2-2-2-2-2-2-2-2-2-2-2-2-2-2-3-2-2-2-2---------3-3-3-3--
 trem...........................................................

------------------------------------------------------------------
------------------------------------------------------------------
------------------------------------------------------------------
------------------------------------------------------------------
-2-2-2-2-1-1---------------------1-1-1-1-0-0----------------------
-------------3-3-2-2-2-2-2-2-2-2-------------3-3-2-2-2-2-2-2-2-2--
 trem...........................................................

--------------------------------------------------
--------------------------------------------------
--------------------------------------------------
--------------------------------------------------
-2-2-2-2-1-1---------------------1-1-1-1-0-0------
-------------3-3-2-2-2-2-2-2-2-2-------------3-3--
 trem............................................


(Clean)


------------------------------------------------------------------
---------------14-------------------------------10----------------
-----13-13-13--13--13-13--11-11-11-11----9-9-9---9--9-9--7-7-7-7--
-----11-11-11--11--11-11--11-11-11-11----7-7-7---7--7-7--7-7-7-7--
--9---9--9--9---9---9--9---9--9--9--9-5--5-5-5---5--5-5--5-5-5-5--
------------------------------------------------------------------

------------------------------------------------------------------
---------------14-------------------------------10----------------
-----13-13-13--13--13-13--11-11-11-11----9-9-9---9--9-9--7-7-7-7--
-----11-11-11--11--11-11--11-11-11-11----7-7-7---7--7-7--7-7-7-7--
--9---9--9--9---9---9--9---9--9--9--9-5--5-5-5---5--5-5--5-5-5-5--
------------------------------------------------------------------

---------------------------------------------
---------------------------------------------
------13------14------13------14------13/14--
---11------11------11------11------11--------
-9-------9-------9-------9-------9-----------
---------------------------------------------

--------------------------------
-----------9-----------9--------
-----9-----------9-----------9--
---7-----7-----7-----7-----7----
-5-----5-----5-----5-----5------
--------------------------------

---------------------------------------------
----------------------14---------------------
------13------14--------------14------14\13--
---11------11------11------11------11--------
-9-------9-------9-------9-------9-----------
---------------------------------------------

----------------------------------
----------------------------------
-9-9-9-9-9-9-9-9-9-9-9-9-9-9-9-9--
-7-7-7-7-7-7-7-7-7-7-7-7-7-7-7-7--
-5-5-5-5-5-5-5-5-5-5-5-5-5-5-5-5--
----------------------------------

(No guitars in the synth part)

2:07

------------------------------------------------------------------
---------------14-------------------------------10----------------
-----13-13-13--13--13-13--11-11-11-11----9-9-9---9--9-9--7-7-7-7--
-----11-11-11--11--11-11--11-11-11-11----7-7-7---7--7-7--7-7-7-7--
--9---9--9--9---9---9--9---9--9--9--9-5--5-5-5---5--5-5--5-5-5-5--
------------------------------------------------------------------

------------------------------------------------------------------
---------------14-------------------------------10----------------
-----13-13-13--13--13-13--11-11-11-11----9-9-9---9--9-9--7-7-7-7--
-----11-11-11--11--11-11--11-11-11-11----7-7-7---7--7-7--7-7-7-7--
--9---9--9--9---9---9--9---9--9--9--9-5--5-5-5---5--5-5--5-5-5-5--
------------------------------------------------------------------

---------------------------------------------
---------------------------------------------
------13------14------13------14------13/14--
---11------11------11------11------11--------
-9-------9-------9-------9-------9-----------
---------------------------------------------

--------------------------------
-----------9-----------9--------
-----9-----------9-----------9--
---7-----7-----7-----7-----7----
-5-----5-----5-----5-----5------
--------------------------------

---------------------------------------------
----------------------14---------------------
------13------14--------------14------1413--
---11------11------11------11------11--------
-9-------9-------9-------9-------9-----------
---------------------------------------------

----------------------------------
----------------------------------
-9-9-9-9-9-9-9-9-9-9-9-9-9-9-9-9--
-7-7-7-7-7-7-7-7-7-7-7-7-7-7-7-7--
-5-5-5-5-5-5-5-5-5-5-5-5-5-5-5-5--
----------------------------------

(No guitars in the synth part)

(Back Into Distortion)

2:51
---------------------------------------------------------
---------------------------------------------------------
---------------------------------------------------------
-6-------------------------6-7-6-------------------------
-4--4--4--4--4--4--4-------4-5-4-4--4--4--4-3-3-3-3-3-3--
----2--2--2--2--2--2-5-4-2-------2--2--2--2-1-1-1-1-2-1--
    pm .  .  .  .  . . . .       .  .  .  .

---------------------------------------------------------
---------------------------------------------------------
---------------------------------------------------------
-6-------------------------6-7-6------------------5------
-4--4--4--4--4--4--4-------4-5-4-4--4--4--4-3-3-3-3------
----2--2--2--2--2--2-5-4-2-------2--2--2--2-1-1-1-3------
    pm .  .  .  .  . . . .       .  .  .  . . . .

---------------------------------------------------------
---------------------------------------------------------
---------------------------------------------------------
-6-------------------------6-7-6-------------------------
-4--4--4--4--4--4--4-------4-5-4-4--4--4--4-3-3-3-3-3-3--
----2--2--2--2--2--2-5-4-2-------2--2--2--2-1-1-1-1-2-1--
    pm .  .  .  .  . . . .       .  .  .  .

---------------------------------------------------------
---------------------------------------------------------
---------------------------------------------------------
-6-------------------------6-7-6------------------5------
-4--4--4--4--4--4--4-------4-5-4-4--4--4--4-3-3-3-3------
----2--2--2--2--2--2-5-4-2-------2--2--2--2-1-1-1-3------
    pm .  .  .  .  . . . .       .  .  .  . . . .

----------------------------------------------------------------
----------------------------------------------------------------
----------------------------------------------------------------
----------------------------------------------------5-----------
-7-0000000000000000-87547545-7-0000000000000000-8757-8757875-7--
----------------------------------------------------------------
   pm.............. ........   ................ .... .......

------------------------------------------------------------------------
------------------------------------------------------------------------
------------------------------------------------------------------------
----------------------6----6666-----------------------------------7h10--
-0000000000000000-8757-8757----7-0000000000000000-------------6h9-------
--------------------------------------------------3h6p3-4h7p4-----------
 ................ .... ....      ................

----------------------------------------------------------------
----------------------------------------------------------------
----------------------------------------------------------------
----------------------------------------------------5-----------
-7-0000000000000000-87547545-7-0000000000000000-8757-8757875-7--
----------------------------------------------------------------
   ................ ........   ................ .... .......

------------------------------------------------------------------------
------------------------------------------------------------------------
------------------------------------------------------------------------
----------------------6----6666-----------------------------------7h10--
-0000000000000000-8757-8757----7-0000000000000000-------------6h9-------
--------------------------------------------------3h6p3-4h7p4-----------
 pm.............. .... ....      ................


----------------------------------------------------------
----------------------------------------------------------
-------5------------------12----------------5----------0--
-------5--------0----------0---12-12--------5--------0----
-3-3-3-3------4---4-7-7-7-10---10-10--3-3-3-3------4------
-1-1-1-3----5-------5-5-5--8----7--7--1-1-1-3----5--------
 pm. .              . . .             . . .

--------------------------------------------------------------------
--------------------------------------------------------------------
--------------------------------------------------------------------
------------6-----5-------5-6-5--------------6-----5-------5-6-5----
-6------------------------------7-6------------------------------7--
---44444444---444---44444-----------44444444---444---44444----------
   pm......   ...   .....           ........   ...   .....

--------------------------------------------------------------------
--------------------------------------------------------------------
--------------------------------------------------------------------
--------------------------------------------------------------------
-2----------2-----1------1-2-1---2----------2-----1-------2-3-2-----
---00000000---000---0000-------3---00000000---000---00000-------3---
   pm......   ...   ....           ........   ...   .....

--------------------------------------------------------------------
--------------------------------------------------------------------
--------------------------------------------------------------------
------------6-----5-------5-6-5--------------6-----5-------5-6-5----
-6------------------------------7-6------------------------------7--
---44444444---444---44444-----------44444444---444---44444----------
   pm......   ...   .....           ........   ...   .....

--------------------------------------------------------------------
--------------------------------------------------------------------
--------------------------------------------------------------------
--------------------------------------------------------------------
-2----------2-----1------1-2-1---2----------2-----1-------2-3-2-----
---00000000---000---0000-------3---00000000---000---00000-------3---
   pm......   ...   ....           ........   ...   .....


------------------------------------------------------------------
------------------------------------------------------------------
------------------------------------------------------------------
------------------------------------------------------------------
-----------------2-2-2-2-------------------------2-2-2-2-5-5-5-5--
-4-4-4-4-4-4-3-3---------3-3-3-3-4-4-4-4-4-4-3-3------------------
 trem...........................................................
pm..............................................................


------------------------------------------------
------------------------------------------------
------------------------------------------------
------------------------------------------------
-----------------2-2-2-2---------3---2--3--5----
-4-4-4-4-4-4-3-3---------3-3-3-3-1---0--1--3----
 trem...........................
pm..............................

----------------------------------------------------------------
----------------------------------------------------------------
----------------------------------------------------------------
----------------------------------------------------------------
--------------3-2-----2-3---5-6-5-3-5----------------6-----5----
-111111111111-----4-3-----3-----------333333333333333-33333-33--
 pm.......... . . . . . . . . . . . . ............... ..... ..

-------------------------------------------------------------------
-------------------------------------------------------------------
-------------------------------------------------------------------
-------------------------------------------------------------------
--------------3-2-----2-3---5-6-5-3-5-----------------5-5-5-6-6-6--
-111111111111-----4-3-----3-----------333333333333333-3-3-3-4-4-4--
 pm.......... . . . . . . . . . . . . ...............

----------------------------------------------------------------
----------------------------------------------------------------
----------------------------------------------------------------
----------------------------------------------------------------
--------------3-2-----2-3---5-6-5-3-5----------------6-----5----
-111111111111-----4-3-----3-----------333333333333333-33333-33--
 pm.......... . . . . . . . . . . . . ............... ..... ..

-------------------------------------------------------------------
-------------------------------------------------------------------
-------------------------------------------------------------------
-------------------------------------------------------------------
--------------3-2-----2-3---5-6-5-3-5-----------------5-5-5-6-6-6--
-111111111111-----4-3-----3-----------333333333333333-3-3-3-4-4-4--
 pm.......... . . . . . . . . . . . . ...............

------------------------------------------------------------------------------
------------------------------------------------------------------------------
------------------------------------------------------------------------------
-4----4h5-4----4----4-4----4----4h5-4----3----3-3--3-3--4----4h5-4----4--4-4--
-3---------4p3-3----3-3----3---------4p3-2----2-2--2-2--3---------4p3-3--3-3--
-2-------------2----2-2----2-------------1----1-1--1-1--2-------------2--2-2--
                    pm.                       . .  . .                   . .


-----------------------------------------------
-----------------------------------------------
-----------------------------------------------
--------------^-------------4-3----3--2--^-----
--------------*----2----4-3-2-1--4-1--0--5-----
-0----2--1----3----0----2-1------2-------3-----
* = Pinch Harmonic
^ = Bend

-----------------------------------------------
-----------------------------------------------
-----------------------------------------------
----------------------------4-3----3--2--------
-2----4--3----5----2----4-3-2-1--4-1--0--4-----
-0----2--1----3----0----2-1------2-------2-----

-----------------------------------------------
-----------------------------------------------
-----------------------------------------------
----------------------------4-3----3--2--^-----
-2----4--3----5----2----4-3-2-1--4-1--0--5-----
-0----2--1----3----0----2-1------2-------3-----
^ = Bend

------------------------------------------------------------------
------------------------------------------------------------------
------------------------------------------------------------------
------------------------------------------------------------------
-------------------------------------------------1-1-1-1-3-3-3-3--
-2-2-2-3-2-2-2-2-2-2-2-2-2-2-2-2-2-2-2-3-2-2-2-2------------------
 trem...........................................................

------------------------------------------------------------------
------------------------------------------------------------------
------------------------------------------------------------------
------------------------------------------------------------------
-------------------------------------------------1-1-1-1----------
-2-2-2-3-2-2-2-2-2-2-2-2-2-2-2-2-2-2-2-3-2-2-2-2---------3-3-3-3--
 trem...........................................................


------------------------------------------------------------------
------------------------------------------------------------------
------------------------------------------------------------------
------------------------------------------------------------------
-------------------------------------------------1-1-1-1-3-3-3-3--
-2-2-2-3-2-2-2-2-2-2-2-2-2-2-2-2-2-2-2-3-2-2-2-2------------------
 trem...........................................................

------------------------------------------------------------------
------------------------------------------------------------------
------------------------------------------------------------------
------------------------------------------------------------------
-------------------------------------------------1-1-1-1----------
-2-2-2-3-2-2-2-2-2-2-2-2-2-2-2-2-2-2-2-3-2-2-2-2---------3-3-3-3--
 trem...........................................................
------------------------------------------------------------------
------------------------------------------------------------------
------------------------------------------------------------------
------------------------------------------------------------------
-2-2-2-2-1-1---------------------1-1-1-1-0-0----------------------
-------------3-3-2-2-2-2-2-2-2-2-------------3-3-2-2-2-2-2-2-2-2--
 trem...........................................................

--------------------------------------------------
--------------------------------------------------
--------------------------------------------------
--------------------------------------------------
-2-2-2-2-1-1---------------------1-1-1-1-0-0------
-------------3-3-2-2-2-2-2-2-2-2-------------3-3--
 trem............................................


(Clean)


------------------------------------------------------------------
---------------14-------------------------------10----------------
-----13-13-13--13--13-13--11-11-11-11----9-9-9---9--9-9--7-7-7-7--
-----11-11-11--11--11-11--11-11-11-11----7-7-7---7--7-7--7-7-7-7--
--9---9--9--9---9---9--9---9--9--9--9-5--5-5-5---5--5-5--5-5-5-5--
------------------------------------------------------------------


-----------------------------------------------------------
---------------14------------------------------------------
-----13-13-13--13--13-13--11-11-11-11----9-9-9-9-9-9-9-9---
-----11-11-11--11--11-11--11-11-11-11----7-7-7-7-7-7-7-7---
--9---9--9--9---9---9--9---9--9--9--9-5--5-5-5-5-5-5-5-5---
-----------------------------------------------------------
                                             let last chord ring.



THE END


septic_flesh241@hotmail.com

  Visit MetalTabs.com for more metal tablature

bottom separator

Contact Us | Privacy Policy | Disclaimer | Legal Notice
Copyright © 2001-2014 MetalTabs.com. All Rights Reserved.