top separator

Home

Forum

What's New

Submit a Tab

FAQ

Links

Contact Us

Link to Us

MetalTabs.com logo

Bands

0-9

A

B

C

D

E

F

G

H

I

J

K

L

M

N

O

P

Q

R

S

T

U

V

W

X

Y

Z

Search

What

Where
 

Akercocke - "My Apterous Angel" Guitar Tab

Plain Text Version
More Akercocke Tabs

Hits: 2677
Rated: 4.75 out of 5 (4 votes)
Updated: 2007-06-24 22:42:43

 

By:

Robbie Filth

sendpm.gif

email.gif

Important note
This tab is available online because we obtained explicit permission from Akercocke or their label.


#----------------------------------PLEASE NOTE---------------------------------#
#This file is the author's own work and represents their interpretation of the #
#song. You may only use this file for private study, scholarship, or research. #
#Unless specified otherwise, this is NOT an official tab from the band members.#
#------------------------------------------------------------------------------#

  Visit MetalTabs.com for more metal tablature
  
Band: Akercocke
Album: Antichrist
Song: My Apterous Angel
Record Label: Earache Records
Tuning: C F A# D# G C

Listen to CD for exact rhythms.

---------0----------------0----------
-------6----------------6------------
-----0----------------0--------------
---6----------------6----------4--4--
-8----------------8------------6--6--
-------------------------------0--0--
 let ring.................... heavy pm.


---------0----------------0-------------
-------6----------------6---------------
-----0----------------0-----------------
---6----------------6----------4--4--4--
-8----------------8------------6--6--6--
-------------------------------0--0--0--
 let ring.................... heavy pm.


----------------------------------
----------------------------------
----------------------------------
-----6-5-----6-5-----6-5-----6-5--
---7-------7-------7-------7------
-0-------0-------0-------0--------
pm . . . . . . . . . . . . . . .

------------------------------------------
------------------------------------------
------------------------------------------
------9---------9---------9---------9-----
---11---10---11---10---11---10---11---10--
-0---------0---------0---------0----------
 pm.  . .  . .  . .  . .  . .  . .  . .

----------------------------------
----------------------------------
----------------------------------
-----6-5-----6-5-----6-5-----6-5--
---7-------7-------7-------7------
-0-------0-------0-------0--------
pm . . . . . . . . . . . . . . .

--------------------
--------------------
--------------------
----------9---------
-----11-------10----
-0------------------
 let ring.........


---------0----------------0----------
-------6----------------6------------
-----0----------------0--------------
---6----------------6----------4--4--
-8----------------8------------6--6--
-------------------------------0--0--
 let ring.................... heavy pm.


---------0----------------0-------------
-------6----------------6---------------
-----0----------------0-----------------
---6----------------6----------4--4--4--
-8----------------8------------6--6--6--
-------------------------------0--0--0--
 let ring.................... heavy pm.


----------------------------------
----------------------------------
-------0-------0-------0-------0--
-----6-------6-------6-------6----
---7-------7-------7-------7------
-0-------0-------0-------0--------
 let ring........................

--------------------------------------
--------------------------------------
--------0--------0--------0--------0--
------9--------9--------9--------9----
---11-------11-------11-------11------
-0--------0--------0--------0---------
 let ring...........................

----------------------------------
----------------------------------
-------0-------0-------0-------0--
-----6-------6-------6-------6----
---7-------7-------7-------7------
-0-------0-------0-------0--------
 let ring........................

---------------------------------------
---------------------------------------
--------12-------12-------12-------12--
------9--------9--------9--------9-----
---11-------11-------11-------11-------
-0--------0--------0--------0----------
 let ring.............................

----------------------------------
----------------------------------
-------0-------0-------0-------0--
-----6-------6-------6-------6----
---7-------7-------7-------7------
-0-------0-------0-------0--------
 let ring........................

--------------------------------------
--------------------------------------
--------0--------0--------0--------0--
------9--------9--------9--------9----
---11-------11-------11-------11------
-0--------0--------0--------0---------
 let ring...........................

----------------------------------
----------------------------------
-------0-------0-------0-------0--
-----6-------6-------6-------6----
---7-------7-------7-------7------
-0-------0-------0-------0--------
 let ring........................

---------------------------------------
---------------------------------------
--------12-------12-------12-------12--
------9--------9--------9--------9-----
---11-------11-------11-------11-------
-0--------0--------0--------0----------
 let ring.............................

---------------------------------------------------
---------------------------------------------------
---------------------------------------------------
-------------------------000000000000000000000000--
-222222223333333355555555666666668888888899999999--
-000000001111111133333333444444446666666677777777--

--------------------------------------------------
--------------------------------------------------
--------------------------------------------------
--0--0--0--0--0--0--0--0--0--0--0--0--0--0--0--0--
-10-10-10-10-10-10-10-10-13-13-13-13-13-13-13-13--
--8--8--8--8--8--8--8--8-11-11-11-11-11-11-11-11--

---------------------------------------------------------
------------------------------------------------------*--
------------------------------------------------------4--
---------6p3---------6p3\2h3----------9p6---------3-6----
---------------------------------------------------------
-0-0-0-0-----0-0-0-0---------0-0-0-0------0-0-0-0--------
 trem...     .......         .......      .......
 pm.....     .......         .......      ....... . .
* = Pinch Harmonic
\ = Slide Down

-----------------------------------------------------------
-----------------------------------------------------------
------------------------------------------------------12\--
---------6p3---------6p3\2h3----------9p6---------9p6------
-----------------------------------------------------------
-0-0-0-0-----0-0-0-0---------0-0-0-0------0-0-0-0----------
 trem...     .......         .......      .......
 pm.....     .......         .......      .......
\ = Slide Down

---------------------------------------------------------
------------------------------------------------------*--
------------------------------------------------------4--
---------6p3---------6p3\2h3----------9p6---------3-6----
---------------------------------------------------------
-0-0-0-0-----0-0-0-0---------0-0-0-0------0-0-0-0--------
 trem...     .......         .......      .......
 pm.....     .......         .......      ....... . .
* = Pinch Harmonic
\ = Slide Down

------------------------------------------------------------------
------------------------------------------------------------------
------------------------------------------------------------------
------------------------------------------------------------------
-------------------------1-------------------------------4--------
-1-4-3-4-1-4-3-4-1-4-3-4---4-3-4-4-7-6-7-4-7-6-7-4-7-6-7---7-6-7--

------------------------------------------------------------------
------------------------------------------------------------------
------------------------------------------------------------------
--------------------------------------------------------------12--
-------------------------1------------------------------------xx--
-1-4-3-4-1-4-3-4-1-4-3-4---4-3-4-4-7-6-7-4-7-6-7-444666777999-10--
                                                 pm..........

------------------------------------------------------------------
------------------------------------------------------------------
-------------------------3-------------------------------6--------
-3-6-5-6-3-6-5-6-3-6-5-6---6-5-6-6-9-8-9-6-9-8-9-6-9-8-9---9-8-9--
------------------------------------------------------------------
------------------------------------------------------------------

--------------------------------------------------
-------------------------------------10-----------
-10-13-12-13-10-13-12-13-10-13-12-13----13-12-13--
--------------------------------------------------
--------------------------------------------------
--------------------------------------------------

------------------------------------------------
------------------------------------------------
-13-16-15-16-13-16-15-16------------------------
-------------------------66688899911111112\\\\--
------------------------------------------------
------------------------------------------------
                                  ^11's.  slide down. \\\\

----------------------------------------------------------------
----------------------------------------------------------------
---3-----------------------0-----3------------------------------
-6---6-5-6-6-6---3-2-2---3---2-6---6-5-6-6-6---3-2-2---3-5-6-5--
----------------------------------------------------------------
-0-------0-----0-------0-------0-------0-----0-------0----------
 Let 0's ring.

----------------------------------------------------------------
----------------------------------------------------------------
---3-----------------------0-----3------------------------------
-6---6-5-6-6-6---3-2-2---3---2-6---6-5-6-6-6---3-2-2---3-5-6-5--
----------------------------------------------------------------
-0-------0-----0-------0-------0-------0-----0-------0----------
 Let 0's ring.

----------------------------
----------------------------
---3------------------------
-6---6-5-6-6-6-3-3-3-3-3-3--
---------------4-4-4-4-4-4--
-0-------0-----3-3-3-6-6-6--X2

--------------------------------------------
--------------------------------------------
---3----------------------------------------
-6---6-5-6-6-6-3-3-3-3-3-3--3-3-3--3-3-3-3--
---------------4-4-4-4-4-4--4-4-4--4-4-4-4--
-0-------0-----3-3-3-6-6-6--6-6-6--6-6-6-6--

(Change to Clean)

------------------------------------------------0--------
---------------8------------------------------3---3------
-----0-----0-----7-------9-0-----0-----0----6-------6----
---6-----9-----------5-6-------6---6-9----4-----------4--
-5---------------------------5---------------------------
-------------------0-------------------------------------X4


------------------------------------------------------------------
---------------------------------------------------------------0--
---0---------0-----0---------0-----0---------0-------0-------0----
-----0-----0---0-----0-----0---0-----0-----0---0-----------0------
---------0---------------0---------------0---------------0--------
-3-----5---------6-----8---------3-----5---------0-6---2----------X8


---------------------------------------------------------------
---------------------------------------------0-----------------
-----0-------0---------0-----0-------3-----3---3---------------
---0-------0---0-----0-----4---4---4-----4-------4-----2-------
---------0-------0-------6-------5-----4-----------1-4---------
-3-----1-----------0-------------------------------------3^-0--

^ = bend.

(Slight Distortion)

--------------0----
--------------0----
--------------3----
--------------2----
-4-4-4-4------2----
-2-2-2-2-0----0----


--------------0----
--------------0----
--------------3----
--------------2----
-4-4-4-4-2-2--2----
-2-2-2-2-0-0--0----X5

------------
------------
------------
------------
-4-4-4-4-2--
-2-2-2-2-0--

--------------------------------------------------
-----------0-----------0-----------0-----------0--
------9-----------9-----------9-----------9-------
---10---10-----10---10-----10---10-----10---10----
-8-----------8-----------8-----------8------------
--------------------------------------------------

------------------------------------------
---------0---------0---------0---------0--
-----8---------8---------8---------8------
---9---9-----9---9-----9---9-----9---9----
-7---------7---------7---------7----------
------------------------------------------

--------------------------------------------------
-----------0-----------0-----------0-----------0--
------9-----------9-----------9-----------9-------
---10---10-----10---10-----10---10-----10---10----
-8-----------8-----------8-----------8------------
--------------------------------------------------

---------------------0----------------------
---------0---------0---0---0---0------------
-----8---------8---------8---8---8---8------
---9---9-----9---9-----------------9---9----
-7---------7-----------------------------7--
--------------------------------------------


(Back Into Distortion)


----------------------------------------------
----------------------------------------------
----------------------------------------------
----------------------------------------------
-11-11-11-11-11-13-11-10-11-11-10-10-8-8-7-7--
--0--0--0--0--0--0--0--0--0--0--0--0-0-0-0-0--
 trem.......................................

--------------------------------------------------
--------------------------------------------------
--------------------------------------------------
--------------------------------------------------
-11-11-11-11-11-13-11-10-11-11-13-13-14-14-13-13--
--0--0--0--0--0--0--0--0--0--0--0--0--0--0--0--0--
trem............................................

--------------------------------------------------
--------------------------------------------------
--------------------------------------------------
--------------------------------------------------
-14-14-14-14-14-16-14-13-14-14-16-16-17-17-16-16--
--0--0--0--0--0--0--0--0--0--0--0--0--0--0--0--0--
trem............................................

--------------------------------------------------
--------------------------------------------------
--------------------------------------------------
--------------------------------------------------
-19-19-19-19-19-20-19-17-19-19-20-20-22-22-20-20--
--0--0--0--0--0--0--0--0--0--0--0--0--0--0--0--0--
trem............................................


--------------------------------------------------
--------------------------------------------------
--------------------------------------------------
--------------------------------------------------
-5--5---------------------5--5--------------------
-3--3--1111000011110000---3--3--1111000011113344--
       trem............         ................


----------------------------------------------------------------------
----------------------------------------------------------------------
----------------------------------------------------------------------
-3333----3333----------------------3333----3333-----------------------
----------------------------------------------------------------------
-----3333----3333-1111000011110000-----3333----3333-1111000011113344--
 trem................................................................


-----------------------------------
-----------------------------------
-----------------------------------
-----------------------------------
-----------------------------------
-44443333444433331111000011110000--

--------------------------------------------------------------------
-00000000000000000000000000000000-00000000000000000000000000000000--
-xxxxxxxxxxxxxxxxxxxxxxxxxxxxxxxx-xxxxxxxxxxxxxxxxxxxxxxxxxxxxxxxx--
-66665555666655553333222233332222-66665555666655553333222233332222--
-xxxxxxxxxxxxxxxxxxxxxxxxxxxxxxxx-xxxxxxxxxxxxxxxxxxxxxxxxxxxxxxxx--
-44443333444433331111000011110000-44443333444433331111000011110000--X2
x = Dead note.


------------------------------------------
------------------------------------------
------------------------------------------
-----------------2h5-----------------2h5--
-------------1h4-----------------1h4------
-0-0-0-0-0-0---------0-0-0-0-0-0----------
 trem.......         ...........


------------------------------------------
------------------------------------------
------------------------------------------
-----------------2h5----------------------
-------------1h4--------5----6----3----4--
-0-0-0-0-0-0---------00-3-00-4-00-1-00-6--
 trem.......         pm   ..   ..   ..

------------------------------------------
------------------------------------------
------------------------------------------
-----------------2h5-----------------2h5--
-------------1h4-----------------1h4------
-0-0-0-0-0-0---------0-0-0-0-0-0----------
 trem.......         ...........


------------------------------------------
------------------------------------------
------------------------------------------
-----------------2h5----------------------
-------------1h4--------5----6----3----4--
-0-0-0-0-0-0---------00-3-00-4-00-1-00-6--
 trem.......         pm   ..   ..   ..

------------------------------------------
------------------------------------------
------------------------------------------
-----------------2h5-----------------2h5--
-------------1h4-----------------1h4------
-0-0-0-0-0-0---------0-0-0-0-0-0----------
 trem.......         ...........


------------------------------------------
------------------------------------------
------------------------------------------
-----------------2h5----------------------
-------------1h4--------5----6----3----4--
-0-0-0-0-0-0---------00-3-00-4-00-1-00-6--
 trem.......         pm   ..   ..   ..

------------------------------------------
------------------------------------------
------------------------------------------
------------------------------------------
------------------------------------4h7---
-000000000000000000000000000000-3h6-------
 pm............................ . . . .

------------------------------------------------
------------------------------------------------
------------------------------------------------
------------------------------------------------
----------------------------------4h7-----7h10--
-0000000000000000000000000000-3h6-----6h9-------
 pm.......................... . . . . . . . .

------------------------------------------
------------------------------------------
------------------------------------------
------------------------------------------
------------------------------------4h7---
-000000000000000000000000000000-3h6-------
 pm............................ . . . .

------------------------------------------------------------------
------------------------------------------------------------------
------------------------------------------------------------------
---------------------------------------------------5h8------8h11--
----------------------------------4h7-----7h10-4h7-----7h10-------
-0000000000000000000000000000-3h6-----6h9-------------------------
 pm.......................... . . . . . . . .  . . . . . .  . .

(Solo when rhythm stops)

5:41
--------
--------
--------
--------
--12\\--
--10\\--

--------------------------------------------
--------------------------------------------
--------------------------------------------
--------------------------------------------
------------------3--------------------4h7--
-0000000000000000-1-00000000000000-3h6------
 pm..............   .............. . . . .

----------------------------------
----------------------------------
----------------------------------
----------------------------------
---------------6---4---3---5---3--
-00000000000-004-003-001-003-001--
 pm......... ..  ..  ..  ..  ..

--------------------------------------------
--------------------------------------------
--------------------------------------------
--------------------------------------------
------------------3--------------------4h7--
-0000000000000000-1-00000000000000-3h6------
 pm..............   .............. . . . .

----------------------------------
----------------------------------
----------------------------------
----------------------------------
---------------6---4---3---5---3--
-00000000000-004-003-001-003-001--
 pm......... ..  ..  ..  ..  ..

------------------------
------------------------
------------------------
------------------------
-2--------6-5--3-5-3----
-0--------4-3--1-3-1----

--------------------------------------------
--------------------------------------------
--------------------------------------------
--------------------------------------------
------------------3--------------------4h7--
-0000000000000000-1-00000000000000-3h6------
 pm..............   .............. . . . .

----------------------------------
----------------------------------
----------------------------------
----------------------------------
---------------6---4---3---5---3--
-00000000000-004-003-001-003-001--
 pm......... ..  ..  ..  ..  ..

--------------------------------------------
--------------------------------------------
--------------------------------------------
--------------------------------------------
------------------3--------------------4h7--
-0000000000000000-1-00000000000000-3h6------
 pm..............   .............. . . . .

----------------------------------
----------------------------------
----------------------------------
----------------------------------
---------------6---4---3---5---3--
-00000000000-004-003-001-003-001--
 pm......... ..  ..  ..  ..  ..

------------------------
------------------------
------------------------
------------------------
-2--------6-5--3-5-3----
-0--------4-3--1-3-1----

--------------------------------------------
--------------------------------------------
--------------------------------------------
--------------------------------------------
------------------3--------------------4h7--
-0000000000000000-1-00000000000000-3h6------
 pm..............   .............. . . . .

----------------------------------
----------------------------------
----------------------------------
----------------------------------
---------------6---4---3---5---3--
-00000000000-004-003-001-003-001--
 pm......... ..  ..  ..  ..  ..

--------------------------------------------
--------------------------------------------
--------------------------------------------
--------------------------------------------
------------------3--------------------4h7--
-0000000000000000-1-00000000000000-3h6------
 pm..............   .............. . . . .

----------------------------------
----------------------------------
----------------------------------
----------------------------------
---------------6---4---3---5---3--
-00000000000-004-003-001-003-001--
 pm......... ..  ..  ..  ..  ..

(Starts Fading out)
--------------------------------------------
--------------------------------------------
--------------------------------------------
--------------------------------------------
------------------3--------------------4h7--
-0000000000000000-1-00000000000000-3h6------
 pm..............   .............. . . . .

----------------------------------
----------------------------------
----------------------------------
----------------------------------
---------------6---4---3---5---3--
-00000000000-004-003-001-003-001--
 pm......... ..  ..  ..  ..  ..

--------------------------------------------
--------------------------------------------
--------------------------------------------
--------------------------------------------
------------------3--------------------4h7--
-0000000000000000-1-00000000000000-3h6------
 pm..............   .............. . . . .

----------------------------------
----------------------------------
----------------------------------
----------------------------------
---------------6---4---3---5---3--
-00000000000-004-003-001-003-001--
 pm......... ..  ..  ..  ..  ..


THE END

septic_flesh241@hotmail.com

  Visit MetalTabs.com for more metal tablature

bottom separator

Contact Us | Privacy Policy | Disclaimer | Legal Notice
Copyright © 2001-2014 MetalTabs.com. All Rights Reserved.