top separator

Home

Forum

What's New

Submit a Tab

FAQ

Links

Contact Us

Link to Us

MetalTabs.com logo

Bands

0-9

A

B

C

D

E

F

G

H

I

J

K

L

M

N

O

P

Q

R

S

T

U

V

W

X

Y

Z

Search

What

Where
 

Gehenna - "Death To Them All" Guitar Tab

Plain Text Version
More Gehenna Tabs

Hits: 1909
Updated: 2007-06-24 22:34:01

 

By:

Daniil

sendpm.gif

email.gif

Important note
This tab is available online because we obtained explicit permission from Gehenna or their label.


#----------------------------------PLEASE NOTE---------------------------------#
#This file is the author's own work and represents their interpretation of the #
#song. You may only use this file for private study, scholarship, or research. #
#Unless specified otherwise, this is NOT an official tab from the band members.#
#------------------------------------------------------------------------------#

  Visit MetalTabs.com for more metal tablature
  
GEHENNA-Death To Them All
WW-2005
Copyright Moonfog Productions
Transcribed by Daniil Laletin
e-mail: dlaletin@mail.ru
version 1.0 December 2006

All corrections are welcome.

 " - tremolo
 / - slide down
 \ - slide up
 . - palm mute
 ~ - long sound
 x - rest
 p - pull off
 h - hammer on
 tr - trill
 () - ghost note, sustained note
 * - artificial harmonics
 b - bend

 Tuning from low to high: E A D G B E

================================

 Riff 1
|-------------------------------|
|-------------------------------|
|-----------------5"------------|
|-----4"--5"--7"--6"------------|gtr 1
|-7"--7"--7"--7"--8"------------|
|-------------------------------|
|
|-------------------------------|
|-------------------------------|
|-------------------------------|
|-------------------------------|gtr 2
|-2"--------------3"------------|
|-0"--------------1"------------|



 Riff 2
|-------------------|
|-------------------|
|-------------------|
|-------------------|both
|-2---5"-2"--1"-3"--|
|-0"--3"-0"---------|



 Riff 3
|-----------------------------|
|-----------------------------|
|-----------------------------|
|---------------5"------------|gtr 1
|-----5"-7"-------------------|
|-3"--------6"--------6"------|
|
|-----------------------------|
|-----------------------------|
|-----------------------------|
|-----------------------------|gtr 2
|---------------1"---(1")-----|
|-3"-----2"-------------------|


 Riff 4a
|-------------------------------------------------|
|-----------------------------------4--7----------|
|--------0-0--------3-0-0------0-0--5--8----0-0-0-|
|--------5-4----------5-4------5-4----------5-4-5-|gtr 1
|-2--4-3------------------------------------------|
|-0--2-1------------------------------------------|
|
|-------------------------------------------------|
|-------------------------------------------------|
|------------8-9-8---------9-8--------------------|
|------------8-9-8---------9-8------5--5--4-------|gtr 2
|-2--4-3-5-4-6-7-6---------7-6------3--6--2-------|
|-0--2-1-3-2--------------------------------------|



 Eiff 4b
|-----------------------------------------------|
|-----------------------------------4--7--------|
|--------0-0--------3-0-0------0-0--5--8--------|
|--------5-4----------5-4------5-4--------4tr5--|gtr 1
|-2--4-3----------------------------------------|
|-0--2-1----------------------------------------|
|
|-----------------------------------------------|
|-----------------------------------------------|
|------------8-9-8---------9-8------------------|
|------------8-9-8---------9-8------5--5--------|gtr 2
|-2--4-3-5-4-6-7-6---------7-6------3--6--2tr3--|
|-0--2-1-3-2------------------------------------|



 Ending chord
|------|
|------|
|------|
|------|both
|-2----|
|-0----|

  Visit MetalTabs.com for more metal tablature

bottom separator

Contact Us | Privacy Policy | Disclaimer | Legal Notice
Copyright © 2001-2014 MetalTabs.com. All Rights Reserved.