top separator

Home

Forum

What's New

Submit a Tab

FAQ

Links

Contact Us

Link to Us

MetalTabs.com logo

Bands

0-9

A

B

C

D

E

F

G

H

I

J

K

L

M

N

O

P

Q

R

S

T

U

V

W

X

Y

Z

Search

What

Where
 

Cretin (US) - "Tazer" Guitar Tab

Plain Text Version
More Cretin (US) Tabs

Hits: 1320
Updated: 2007-06-24 22:28:24

 

By:

goatman

sendpm.gif

email.gif

Important note
This tab is available online because we obtained explicit permission from Cretin (US) or their label.


#----------------------------------PLEASE NOTE---------------------------------#
#This file is the author's own work and represents their interpretation of the #
#song. You may only use this file for private study, scholarship, or research. #
#Unless specified otherwise, this is NOT an official tab from the band members.#
#------------------------------------------------------------------------------#

  Visit MetalTabs.com for more metal tablature
  
Band:  (CRETIN)
Album: (FREAKERY)
Song:  (TAZER)

Copyright (c)  (RELAPSE RECORDS) (2006)

Transcribed By: (GOATMAN)
Email:          (VIRUS010891@AOL.COM)


.  - palm mute              ()  - sustained note/chord

Tuning: B standard
                                                           x3
|----------------------------------------------------------|--------------------
|.--------------------------------------------------------.|--------------------
|----------------------------------------------------------|--------------------
|-------4--------5--(7)--------------4-5-------------------|------4--------5-(7)
|.2--5--2--4--7--3--(5)--------------2-3----------4-5-----.|2--5--2--4--7--3-(5)
|-0--3-----2--5---------000000000000-----00000000-2-3-0000-|0--3-----2--5-------
                        ............     ........     ....
                                      x2                                    x2
|--------------------------------------|-------------------------------------|
|.------------------------------------.|.-----------------------------------.|
|--------------------------------------|-------------------------------------|
|--------------------------------------|-------------------------------------|
|.--------------9-10----------9-10--9-.|.--------------4-5----------4--5--4-.|
|--555555555555-7--8-55555555-7--8--7--|--000000000000-2-3-00000000-2--3--2--|
   ............      ........             ............     ........
                                      x2                                    x2
|--------------------------------------|-------------------------------------|
|.------------------------------------.|.-----------------------------------.|
|--------------------------------------|-------------------------------------|
|--------------------------------------|-------------------------------------|
|.--------------9-10----------9-10--9-.|.--------------4-5----------4--5--4-.|
|--555555555555-7--8-55555555-7--8--7--|--000000000000-2-3-00000000-2--3--2--|
   ............      ........             ............     ........

------------------------------------------------------------------
------------------------------------------------------------------
------------------------------------------------------------------
-6--6--6-------------------------7--7--7-----------------6--6--6--
-4--4--4-5--5--5-2--2--2-2--5--8-5--5--5-6--6--6-8--8--8-4--4--4--
---------3--3--3-0--0--0-0--3--6---------4--4--4-6--6--6----------

------------------------------------------------------------------
------------------------------------------------------------------
------------------------------------------------------------------
-6--6--6-------------------------7--7--7--------------------------
-4--4--4-5--5--5-2--2--2-2--5--8-5--5--5-6--6--6-8--8--8-7--7--7--
---------3--3--3-0--0--0-0--3--6---------4--4--4-6--6--6-5--5--5--


   --------------------------------------
gtr--------------------------------------
 1 --------------------------------------
   --------------------------------------
   ---------------9-10----------9-10--9--
   --555555555555-7--8-55555555-7--8--7--
   | ............      ........         |
   |                                    |
   --------------------------------------
gtr--------------------------------------
 2 --------------------------------------
   --------------------------------------
   --7--------------------------9-10--9--
   --5--------------------------7--8--7--

                                      x2                                    x2
|--------------------------------------|-------------------------------------|
|.------------------------------------.|.-----------------------------------.|
|--------------------------------------|-------------------------------------|
|--------------------------------------|-------------------------------------|
|.--------------9-10----------9-10--9-.|.--------------4-5----------4--5--4-.|
|--555555555555-7--8-55555555-7--8--7--|--000000000000-2-3-00000000-2--3--2--|
   ............      ........             ............     ........
                                      x2                                    x2
|--------------------------------------|-------------------------------------|
|.------------------------------------.|.-----------------------------------.|
|--------------------------------------|-------------------------------------|
|--------------------------------------|-------------------------------------|
|.--------------9-10----------9-10--9-.|.--------------4-5----------4--5--4-.|
|--555555555555-7--8-55555555-7--8--7--|--000000000000-2-3-00000000-2--3--2--|
   ............      ........             ............     ........

------------------------------------------------------------------
------------------------------------------------------------------
------------------------------------------------------------------
-6--6--6-------------------------7--7--7-----------------6--6--6--
-4--4--4-5--5--5-2--2--2-2--5--8-5--5--5-6--6--6-8--8--8-4--4--4--
---------3--3--3-0--0--0-0--3--6---------4--4--4-6--6--6----------

------------------------------------------------------------------
------------------------------------------------------------------
------------------------------------------------------------------
-6--6--6-------------------------7--7--7--------------------------
-4--4--4-5--5--5-2--2--2-2--5--8-5--5--5-6--6--6-8--8--8-7--7--7--
---------3--3--3-0--0--0-0--3--6---------4--4--4-6--6--6-5--5--5--


----------------------------------------------------------|-------------------
----------------------------------------------------------|.------------------
----------------------------------------------------------|-------------------
-------4--------5--(7)--------------4-5-------------------|----------4444-----
-2--5--2--4--7--3--(5)--------------2-3----------4-5------|.-2222555522224444-
-0--3-----2--5---------000000000000-----00000000-2-3-0000-|--00003333----2222-
                       ............     ........     ....
                                                     x2
------------------------------------------------------|-----------------------
-----------------------------------------------------.|-----------------------
------------------------------------------------------|-----------------------
-----555577777777--------------4-5--------------------|-------4--------5--(7)-
-7777333355555555--------------2-3----------4-5------.|-2--5--2--4--7--3--(5)-
-5555-------------000000000000-----00000000-2-3-0000--|-0--3-----2--5---------
                  ............     ........     ....

  Visit MetalTabs.com for more metal tablature

bottom separator

Contact Us | Privacy Policy | Disclaimer | Legal Notice
Copyright © 2001-2014 MetalTabs.com. All Rights Reserved.