top separator

Home

Forum

What's New

Submit a Tab

FAQ

Links

Contact Us

Link to Us

MetalTabs.com logo

Bands

0-9

A

B

C

D

E

F

G

H

I

J

K

L

M

N

O

P

Q

R

S

T

U

V

W

X

Y

Z

Search

What

Where
 

Waco Jesus - "I Hope He Beats You" Guitar Tab

Plain Text Version
More Waco Jesus Tabs

Hits: 2313
Updated: 2007-06-24 22:27:32

 

By:

goatman

sendpm.gif

email.gif

Important note
This tab is available online because we obtained explicit permission from Waco Jesus or their label.


#----------------------------------PLEASE NOTE---------------------------------#
#This file is the author's own work and represents their interpretation of the #
#song. You may only use this file for private study, scholarship, or research. #
#Unless specified otherwise, this is NOT an official tab from the band members.#
#------------------------------------------------------------------------------#

  Visit MetalTabs.com for more metal tablature
  
Band:  (WACO JESUS)
Album: (FILTH)
Song:  (I HOPE HE BEATS YOU)

Copyright (c)  (MORBID RECORDS) (2003)

Transcribed By: (GOATMAN)
Email:          (VIRUS010891@AOL.COM)


.  - palm mute           "  - tremolo

Tuning: Db Standard
                                  x8                                 x4
|----------------------------------|----------------------------------|
|.--------------------------------.|.--------------------------------.|
|----------------------------------|----------------------------------|
|----------5-----------------------|----------------------------------|
|.---4---4-3-4---4-5-4---4-5-4--7-.|.-5----6---------5-4---8-5---5-4-.|
|--0-2-0-2---2-0-2-3-2-0-2-3-2--5--|----4-4--4-4-4-0-3-2-0-6-3-0-3-2--|
                                        . .  . . .
(1st time-1guitar)x2                                                     x4
|-----------------|-------------------------------------|-----------------|
|.---------------.|-------------------------------------|.---------------.|
|-----------------|-------------------------------------|-----------------|
|--------------3--|----------------------------------3--|--------------3--|
|.-5-4----5----1-.|------------------1"--5-4----5----1--|.-5-4----5----1-.|
|--3-2-0--3--0----|-3"-2"-0"--3"--0"-----3-2-0--3--0----|--3-2-0--3--0----|

                       x4                x4                      x4
|-----------------------|-----------------|-----------------------|
|.---------------------.|.---------------.|.---------------------.|
|-----------------------|-----------------|-----------------------|
|-----------------------|--------------3--|-----------------------|
|.------------------1"-.|.-5-4----5----1-.|.------------------1"-.|
|--3"-2"-0"--3"--0"-----|--3-2-0--3--0----|--3"-2"-0"--3"--0"-----|

                                   x4                 x16               x16
|-----------------------------------|-------------------|-----------------|
|.---------------------------------.|.-----------------.|.---------------.|
|-----------------------------------|-------------------|-----------------|
|-----------------------------------|--6---------5------|-----------------|
|.-5-----6---------5-4---8-5---5-4-.|.-4-4-4-4-4-3-4-4-.|.----7"---------.|
|----4-4---4-4-4-0-3-2-0-6-3-0-3-2--|----2-2-2-2---2-2--|--6"----7"6"0"5"-|
     . .   . . .
                                  x4                 x16                x2
|----------------------------------|-------------------|-----------------|-----|
|.--------------------------------.|.-----------------.|.---------------.|-1---|
|----------------------------------|-------------------|-----------------|-bar-|
|----------5-----------------------|--6---------5------|--------------3--|-rest|
|.---4---4-3-4---4-5-4---4-5-4--7-.|.-4-4-4-4-4-3-4-4-.|.-5-4----5----1-.|-----|
|--0-2-0-2---2-0-2-3-2-0-2-3-2--5--|----2-2-2-2---2-2--|--3-2-0--3--0----|-----|

                 x4                     x4              x4                    x4
|-----------------|----------------------|---------------|---------------------|
|.---------------.|.--------------------.|.-------------.|.-------------------.|
|-----------------|----------------------|---------------|---------------------|
|--------------3--|----------------------|-------------3-|---------------------|
|.-5-4----5----1-.|.-----------------1"-.|.5-4----5----1.|.-----------------1".|
|--3-2-0--3--0----|-3"-2"-0"--3"--0"-----|-3-2-0--3--0---|-3"-2"-0"--3"--0"----|

  Visit MetalTabs.com for more metal tablature

bottom separator

Contact Us | Privacy Policy | Disclaimer | Legal Notice
Copyright © 2001-2014 MetalTabs.com. All Rights Reserved.