top separator

Home

Forum

What's New

Submit a Tab

FAQ

Links

Contact Us

Link to Us

MuSpy.com

MetalTabs.com logo

Bands

0-9

A

B

C

D

E

F

G

H

I

J

K

L

M

N

O

P

Q

R

S

T

U

V

W

X

Y

Z

Search

What

Where
 

Goratory - "Cream of Fetus" Guitar Tab

Plain Text Version
More Goratory Tabs

Hits: 1676
Updated: 2007-06-24 22:27:09

 

By:

goatman

sendpm.gif

email.gif

Important note
We did our best to reach Goratory and ask for their permission to publish this tab. Unfortunately they did not respond to our requests or we could not find a way to contact them. This tab is available online until Goratory tells us to take it down.


#----------------------------------PLEASE NOTE---------------------------------#
#This file is the author's own work and represents their interpretation of the #
#song. You may only use this file for private study, scholarship, or research. #
#Unless specified otherwise, this is NOT an official tab from the band members.#
#------------------------------------------------------------------------------#

  Visit MetalTabs.com for more metal tablature
  
Band:  (GORATORY)
Album: (ORGASM INDUCED DIARRHEA)
Song:  (SONG NAME)

Copyright (c)  (AMPUTATED VEIN RECORDS) (2002)

Transcribed By: (GOATMAN)
Email:          (VIRUS010891@AOL.COM)


.  - palm mute           /  - slide up to         \  - slide down to
h  - hammer on           p  - pull off            "  - tremolo


Tuning: D G C F A D
                                           x4                            x4
|-------------------------------------------|-----------------------------|
|.-----------------------------------------.|.---------------------------.|
|-------------------------------------------|-----------------------------|
|--5h6p5---------5h6p5---------------2h3p2--|-----------------------------|
|.-------2-1-0-1-------2-1-0-1-3h4p3-------.|.-3--2--2-2--3--3-2-3-4-5-4-.|
|-------------------------------------------|--1--0--0-0--1--1-0-1-2-3-2--|
         . . . .       . . . .                       . .     . . . . . .
                                                        x2
|--------------------------------------------------------|
|.------------------------------------------------------.|
|--------------------------------------------------------|
|--------------7"----7"----------------------------------|
|.-7"----7"-------8"----8"--5"--8"----7"/------------8"-.|
|-----8"----8"---------------------0"-----5"--8"--5"-----|

                             x4(half time)                x3
|-----------------------------|----------------------------|--------------------
|.---------------------------.|.--------------------------.|--------------------
|-----------------------------|----------------------------|--------------------
|-----------------------------|----------------------------|--------------------
|.-3--2--2-2--3--3-2-3-4-5-4-.|.-3--2--3--4--3--2--3------.|-3--2--3--4--3------
|--1--0--0-0--1--1-0-1-2-3-2--|--1--0--1--2--1--0--1-/12\--|-1--0--1--2--1-0-1-2
         . .     . . . . . .        .           .               .         (bass)
                                                          x4
|----------------------------------------------------------|-----------------
|.--------------------------------------------------------.|-----------------
|----------------------------------------------------------|-----------------
|--------------7"----7"------------------------------------|-----------------
|.-7"----7"-------8"----8"--5"--8"----7"/---------8---7---.|---------7-------
|-----8"----8"---------------------0"-----5-8-7-5---5---5--|-8-7-5-7---4-5-7-
                                          . . . .   .   .    . . . .   . . .
                                   x3      (half time)                        x4
|-----------------------------------|------|-----------------------------------|
|.---------------------------------.|------|.---------------------------------.|
|-----------------------------------|------|-----------------------------------|
|-----------------------------------|------|-----------------------------------|
|.---------8---7-----------7-------.|------|.-3--2--3--4--3--2--3-------------.|
|--5-8-7-5---5---5-8-7-5-7---4-5-7--|--12\-|--1--0--1--2--1--0--1-/12\---------|
   . . . .   .   . . . . .   . . .               .           .
                             x8                                              x4
|-----------------------------|-----------------------------------------------|
|.---------------------------.|.---------------------------------------------.|
|-----------------------------|-----------------------------------------------|
|-----------------------------|-----------------------------------------------|
|.-3--2--2-2--3--3-2-3-4-5-4-.|.-6--5--3--5-8--7~-6--5-8--7~-6--5--5-8--7~---.|
|--1--0--0-0--1--1-0-1-2-3-2--|--4--3--1----------4----------4--3-------------|
         . .     . . . . . .     .  .  .          .          .  .

------------------------------------------------------------------------------
------------------------------------------------------------------------------
------------------------------------------------------------------------------
----------two beat---------------------------two beat---two beat-----two beat-
-6--5--4----rest----6-rest-6--5-rest-6--5--4---rest---6---rest--6--5---rest---
-4--3--2------------4------4--3------4--3--2----------4---------4--3----------
 .  .  .            .      .  .      .  .  .          .         .  .
                   x9                  x8                  x4
|-------------------|-------------------|-------------------|----------------
|.-----------------.|.-----------------.|.-----------------.|----------------
|-------------------|-------------------|-------------------|----------------
|-------------------|-------------------|-------------------|----------------
|.-----------------.|.-----------------.|.-----------------.|---2-2-2-2-2-2-2
|--6-2-3-5-6-2-3-5--|--6-2-3-5-6-2-3-5--|--6-2-3-5-6-2-3-5--|-6-0-0-0-0-0-0-0
   . . . . . . . .                         . . . . . . . .    . . . . . . . .
                                                                              x4
------------|------------------------------------------------------------------|
------------|.----------------------------------------------------------------.|
------------|------------------------------------------------------------------|
------------|------------------------------------------------------------------|
2-2-2-2-----|.2-2-2-2-2-2-2-2-2-2-2-2--------2-2-2-2-2-2-2-2-2-2-2-2-2-2-2----.|
0-0-0-0-/12\|-0-0-0-0-0-0-0-0-0-0-0-0-1/13\1-0-0-0-0-0-0-0-0-0-0-0-0-0-0-0-1/12|
. . . .      . . . . . . . . . . . .        . . . . . . . . . . . . . . .
                  x4                                        x3
|------------------|------------|--------------------------|--------------------
|.----------------.|------------|.------------------------.|--------------------
|------------------|------------|--------------------------|--------------------
|------------------|--two beat--|--------------------------|--------------------
|.----------------.|2--rest-----|.3--2--3--4--3--2--3-----.|-3--2--3--4--3------
|-6-2-3-5-6-2-3-5--|0------/12\-|-1--0--1--2--1--0--1-/12\-|-1--0--1--2--1-0-1-2
  . . . . . . . .                    .           .              .         (bass)
                                                          x4
|----------------------------------------------------------|-----------------
|.--------------------------------------------------------.|-----------------
|----------------------------------------------------------|-----------------
|--------------7"----7"------------------------------------|-----------------
|.-7"----7"-------8"----8"--5"--8"----7"/---------8---7---.|---------7-------
|-----8"----8"---------------------0"-----5-8-7-5---5---5--|-8-7-5-7---4-5-7-
                                          . . . .   .   .    . . . .   . . .
                                  x3
|----------------------------------|
|.--------------------------------.|
|----------------------------------|
|----------------------------------|
|.--------8---7-----------7-------.|
|-5-8-7-5---5---5-8-7-5-7---4-5-7--|
  . . . .   .   . . . . .   . . .


             !!!!!!!!ENJOY MY TAB!!!!!!!!!!

  Visit MetalTabs.com for more metal tablature

bottom separator

Contact Us | Privacy Policy | Disclaimer | Legal Notice
Copyright © 2001-2014 MetalTabs.com. All Rights Reserved.