top separator

Home

Forum

What's New

Submit a Tab

FAQ

Links

Contact Us

Link to Us

MetalTabs.com logo

Bands

0-9

A

B

C

D

E

F

G

H

I

J

K

L

M

N

O

P

Q

R

S

T

U

V

W

X

Y

Z

Search

What

Where
 

Antaeus - "Inner War" Guitar Tab

Plain Text Version
More Antaeus Tabs

Hits: 3324
Rated: 5.00 out of 5 (3 votes)
Updated: 2007-06-04 03:11:48

 

By:

Wolfsherz

sendpm.gif

email.gif

Important note
This tab is available online because we obtained explicit permission from Antaeus or their label.


#----------------------------------PLEASE NOTE---------------------------------#
#This file is the author's own work and represents their interpretation of the #
#song. You may only use this file for private study, scholarship, or research. #
#Unless specified otherwise, this is NOT an official tab from the band members.#
#------------------------------------------------------------------------------#

  Visit MetalTabs.com for more metal tablature
  
Band:  Antaeus
Album: Cut Your Flesh and Worship Satan
Song:  Inner War

Copyright (c)  Baphomet Records 2000

Transcribed By: Wolfsherz/Jens Cautereels
Email:          cautereels.jens@gmail.com

Tuning: DGCFAd


d ---------------------------------------------------------------
A ---------------------------------------------------------------
F -----888----------------888-----121212-------------------------
C -555-888-555-121212-555-888-555-121212-------------------------
G -555-666-555-121212-555-666-555-101010-------------------------
D -333-----333-101010-333-----333-------------------------------- x4

d ---------------------------------------------------------------
A ---------------------------------------------------------------
F ---------------------------------------------------------------
C -5-------------------------------------------------------------
G -5-------------------------------------------------------------
D -3-------------------------------------------------------------

d ---------------------------------------------------------------
A ---------------------------------------------------------------
F ---------------------------------------------------------------
C -55555555555-88888888-99-88------------------------------------
G -55555555555-88888888-99-88------------------------------------
D -33333333333-66666666-77-66------------------------------------ x4

d ---------------------------------------------------------------
A ---------------------------------------------------------------
F ---------------------------------------------------------------
C -555-121212-555-121212-555-121212--5-7-5-7---------------------
G -555-121212-555-121212-555-121212--5-7-5-7---------------------
D -333-101010-333-101010-333-101010--3-5-3-5--------------------- x4
                                                 |RM-KU|
d ---------------------------------------------------------------
A ---------------------------------------------------------------
F -----888----------------888-----121212-------------------------
C -555-888-555-121212-555-888-555-121212-------------------------
G -555-666-555-121212-555-666-555-101010-------------------------
D -333-----333-101010-333-----333-------------------------------- x4

d ---------------------------------------------------------------
A ---------------------------------------------------------------
F ---------------------------------------------------------------
C -555-121212-555-121212-555-121212--5-7-5-7---------------------
G -555-121212-555-121212-555-121212--5-7-5-7---------------------
D -333-101010-333-101010-333-101010--3-5-3-5--------------------- x2
                                                 IW/CYF-WS
d ---------------------------------------------------------------
A ---------------------------------------------------------------
F ---------------------------------------------------------------
C -5--8-7-5--8-7-5--8-7-5--8-7-----------------------------------
G -5--8-7-5--8-7-5--8-7-5--8-7-----------------------------------
D -3--6-5-3--6-5-3--6-5-3--6-5----------------------------------- x4

d ---------------------------------------------------------------
A ---------------------------------------------------------------
F ---------------------------------------------------------------
C -5-5-8-7--5-5-8--5-5-8-7--5-5-8--------------------------------
G -5-5-8-7--5-5-8--5-5-8-7--5-5-8--------------------------------
D -3-3-6-5--3-3-6--3-3-6-5--3-3-6-------------------------------- x2

Guitar 1:
d ---------------------------------------------------------------
A ---------------------------------------------------------------
F ---------------------------------------------------------------
C -5---5-5---5-5---5-8-7-----------------------------------------
G -5-5---5-5---5-5---8-7-----------------------------------------
D -3-----3-----3-----6-5----------------------------------------- x4
Guitar 2:
d ---------------------------------------------------------------
A ---------------------------------------------------------------
F ---------------------------------------------------------------
C -5-----8-----5-----8-7-----------------------------------------
G -5-----8-----5-----8-7-----------------------------------------
D -3-----6-----3-----6-5----------------------------------------- x4

d ---------------------------------------------------------------
A ---------------------------------------------------------------
F ---------------------------------------------------------------
C -5-5-8-7--5-5-8--5-5-8-7--5-5-8--------------------------------
G -5-5-8-7--5-5-8--5-5-8-7--5-5-8--------------------------------
D -3-3-6-5--3-3-6--3-3-6-5--3-3-6-------------------------------- x2
   DN
Guitar 1:
d ---------------------------------------------------------------
A ---------------------------------------------------------------
F ---------------------------------------------------------------
C -5---5-5---5-5---5-8-7-----------------------------------------
G -5-5---5-5---5-5---8-7-----------------------------------------
D -3-----3-----3-----6-5----------------------------------------- x4
Guitar 2:
d ---------------------------------------------------------------
A ---------------------------------------------------------------
F ---------------------------------------------------------------
C -5-----8-----5-----8-7-----------------------------------------
G -5-----8-----5-----8-7-----------------------------------------
D -3-----6-----3-----6-5----------------------------------------- x4

d ---------------------------------------------------------------
A ---------------------------------------------------------------
F ---------------------------------------------------------------
C -5-------------------------------------------------------------
G -5-(let ring)--------------------------------------------------
D -3-------------------------------------------------------------
    IW
d ---------------------------------------------------------------
A ---------------------------------------------------------------
F ---------------------------------------------------------------
C -55555555555-88888888-99-88------------------------------------
G -55555555555-88888888-99-88------------------------------------
D -33333333333-66666666-77-66------------------------------------ x4

d ---------------------------------------------------------------
A ---------------------------------------------------------------
F ---------------------------------------------------------------
C -555-121212-555-121212-555-121212--5-7-5-7---------------------
G -555-121212-555-121212-555-121212--5-7-5-7---------------------
D -333-101010-333-101010-333-101010--3-5-3-5--------------------- x4
                                   |WITNESS|CYF-WS|
d ---------------------------------------------------------------
A ---------------------------------------------------------------
F -----888----------------888-----121212-------------------------
C -555-888-555-121212-555-888-555-121212-------------------------
G -555-666-555-121212-555-666-555-101010-------------------------
D -333-----333-101010-333-----333-------------------------------- x4
                                  IW

  Visit MetalTabs.com for more metal tablature

bottom separator

Contact Us | Privacy Policy | Disclaimer | Legal Notice
Copyright © 2001-2014 MetalTabs.com. All Rights Reserved.