top separator

Home

Forum

What's New

Submit a Tab

FAQ

Links

Contact Us

Link to Us

MuSpy.com

MetalTabs.com logo

Bands

0-9

A

B

C

D

E

F

G

H

I

J

K

L

M

N

O

P

Q

R

S

T

U

V

W

X

Y

Z

Search

What

Where
 

Rotting Christ - "Transform all Sufferings into Plagues" Guitar Tab

Plain Text Version
More Rotting Christ Tabs

Hits: 2162
Rated: 2.00 out of 5 (1 vote)
Updated: 2007-06-04 03:10:29

 

By:

XXX

sendpm.gif

email.gif

Important note
This tab is available online because we obtained explicit permission from Rotting Christ or their label.


#----------------------------------PLEASE NOTE---------------------------------#
#This file is the author's own work and represents their interpretation of the #
#song. You may only use this file for private study, scholarship, or research. #
#Unless specified otherwise, this is NOT an official tab from the band members.#
#------------------------------------------------------------------------------#

  Visit MetalTabs.com for more metal tablature
  
Band: Rotting Christ
Album:Thy Mighty Contract
Song: Transform All Sufferings Into Plagues

Copyright (c) Osmose Productions 1993
Version 1.0 - 26.5.2007

Transcribed By: Blashyrkh
Email:          Blashyrkh@azet.sk


.  - palm mute           /  - slide up to
\  - slide down to       ~  - vibrato
h  - hammer on           b  - Bend
p  - pull off            Suffixes for bend
t  - tap                 f  - full bend    h - half bend
ph - pinched harmonic    q  - quarter bend t - tap bend
*  - see comment         ^  - Hold bend    r release bend
x  - Stuccatto           ~  - vibrato bend
,  - slight palm mute    () - ghost note, sustained note
"  - tremolo note        <> - Trill


Tunning> E A D G B E


Riff 1a:
|---------------------------------------------------------------|
|-------------------------------------------------------a.h.----|
|-------------------------a.h.---------------15----------10-----| Gtr.1
|--11-10-10-10---11-10-10-10------------------------------------|
|-------------------------------/10-12-------------10-12--------|
|---------------------------------------------------------------|
|                                                               |
|                                                               |
|---------------------------------------------------------------|
|---------------------------------------------------------------|
|--------------------------------------------------a.h.---------| Gtr.2
|--3------2-----3-----2-----3~----------------------8-----------|
|-----0-0-0-0-0---0-0-0-0-0--------5----------5--7--------------|
|------------------------------0-0-3-3-3-3-3--------------------|
      . .   . .   . . . . .    . .   . . . .


Riff 1b:
|---------------------------------------------------------------|
|---------------------------------------------------------------|
|--------------------------------------------------a.h.---------| Gtrs.1&2
|--3------2-----3-----2-----3~----------------------8-----------|
|-----0-0-0-0-0---0-0-0-0-0--------5----------5--7--------------|
|------------------------------0-0-3-3-3-3-3--------------------|


Riff 2:
|----------------------------------------------|
|------------------------------------------a.h.|
|-----------9-----------------10-9-9-7-7-9-9---| Gtr.1
|--7----------10-10~---------------------------|
|---------------------8-7-7--------------------|
|----------------------------------------------|
|                                              |
|                                              |
|----------------------------------------------|
|----------------------------------------------|
|----------------------------------------------| Gtr.2
|----------------------------------------------|
|--7--------7---a.h.-3---2-----8-7-7-5-5-7-7---|
|--5----------8-8----1-0-0---------------------|



Riff 3: first four times plays only guitar 1
|----------------------------------------------------|
|----------------------------------------------------|
|-------------------------------------------55555----| Gtr.1
|--------------------55555-------77777---------------|
|--------88888-77777-------55555-------88888---------|
|--55555---------------------------------------------|
|                                                    |
|                                                    |
|--------------------------------55555-------88888---|
|--------66666-------88888-------------66666---------|
|--------------99999-------77777---------------------| Gtr.2
|--77777---------------------------------------------|
|----------------------------------------------------|
|----------------------------------------------------|



Riff 4:
|--------------------------------------------------------|
|--------------------------------------------------------|
|--------------------------------------------------------| Gtrs.1&2
|----------------------------------10---9-----999101010--|
|--------8----7-----777888--88888----88---888------------|
|--55555---55---555--------------------------------------|


Riff 5:                                | end with:
|--------------------------------------|-----|
|--------------------------------------|-----|
|--2--------5--------2--------5--------|-----| Gtrs.1&2
|--2--------5--------2--------5--------|-----|
|--0--------3--------0--------3--------|-0---|
|--------------------------------------|-0---|


Riff 6:
|-----------------------------------------------|
|-----------------------------------------------|
|-----------------------------------------------| Gtrs.1&2
|-------------222222---------------333---222----|
|-------------------333222------------333---333-|
|-000000000000------------111000000-------------|
  .............................................


Riff 7:
|----------------------------------------------|
|----------------------------------------------|
|--2--------5----------------------------------| Gtrs.1&2
|--2--------5--------2-------------------222---|
|--0--------3--------2--------333333-555-------|
|--------------------0-------------------------|


Riff 8: {Under the solo}
|---------------------------------------------|
|---------------------------------------------|
|---------------------------------------------|
|--2222222222222222222------------------------|
|--------------------0-5555555555555555552----|
|----------------------------------------0----|


End
|-----|
|-----|
|-----|
|--7--|
|--7--|
|--5--|







Riff 1a: 4x
Riff 1b: 2x
Riff 2 : 2x
Riff 1b: 4x
Riff 2 : 2x
Riff 3 : 8x
Riff 4 : 4x
Riff 5 : 2x
Riff 6 : 6x
Riff 7 : 4x
Riff 6 : 4x
Riff 7 : 4x
Riff 8 : 4x
Riff 1b: 4x
Riff 2 : 2x
End

  Visit MetalTabs.com for more metal tablature

bottom separator

Contact Us | Privacy Policy | Disclaimer | Legal Notice
Copyright © 2001-2014 MetalTabs.com. All Rights Reserved.