top separator

Home

Forum

What's New

Submit a Tab

FAQ

Links

Contact Us

Link to Us

MetalTabs.com logo

Bands

0-9

A

B

C

D

E

F

G

H

I

J

K

L

M

N

O

P

Q

R

S

T

U

V

W

X

Y

Z

Search

What

Where
 

Ablaze My Sorrow - "The Return of the Mighty Raven" Guitar Tab

Plain Text Version
More Ablaze My Sorrow Tabs

Hits: 1715
Updated: 2007-06-04 03:09:24

 

By:

Daniil

sendpm.gif

email.gif

Important note
This tab is available online because we obtained explicit permission from Ablaze My Sorrow or their label.


#----------------------------------PLEASE NOTE---------------------------------#
#This file is the author's own work and represents their interpretation of the #
#song. You may only use this file for private study, scholarship, or research. #
#Unless specified otherwise, this is NOT an official tab from the band members.#
#------------------------------------------------------------------------------#

  Visit MetalTabs.com for more metal tablature
  
ABLAZE MY SORROW-The Return Of Mighty Raven
The Plague-1998
Copyright No Fashion Records
Transcribed by Daniil Laletin
e-mail: dlaletin@mail.ru
version 1.0 June 2006

All corrections are welcome.

 " - tremolo
 / - slide down
 \ - slide up
 . - palm mute
 ~ - long sound
 x - rest
 p - pull off
 h - hammer on
 tr - trill
 () - ghost note, sustained note
 * - artificial harmonics
 b - bend

 Tuning from low to high: D G C F A D

================================

 Intro
|--------------------------|
|--------------------------|
|--------------------------|
|--------------------------|gtr 1
|--------------------------|
|--------------------------|
|
|--------------------------|
|--------------------------|
|--------------------------|
|-7----7----6-7"-9"-10"-9"-|gtr 2
|---00---00-.--------------|
|---..---..----------------|

|--------------------------|
|--------------------------|
|--------------------------|
|--------------------------|gtr 1
|-------------7"-9"-10"-9"-|
|--------------------------|
|
|--------------------------|
|--------------------------|
|--------------------------|
|--------------------------|gtr 2
|-7----7----6-7"-9"-10"-9"-|
|---00---00-.--------------|
    ..   ..


 Riff 1
|--------------------------|
|--------------------------|
|--------------------------|
|-7----7----6-7"-9"-10"-9"-|both
|---00---00-.--------------|
|---..---..----------------|

|--------------------------|
|--------------------------|
|--------------------------|
|--------------------------|both
|-7----7----6-7"-9"-10"-9"-|
|---00---00-.--------------|
    ..   ..


 Riff 2
|--------------------------|
|--------------------------|
|-------------5"-7"--9"-7"-|
|-7----7----6--------------|gtr 1
|---00---00-.--------------|
|---..---..----------------|
|
|--------------------------|
|--------------------------|
|--------------------------|
|-7----7----6-7"-9"-10"-9"-|gtr 2
|---00---00-.--------------|
|---..---..----------------|

|--------------------------|
|--------------------------|
|--------------------------|
|--------------------------|gtr 1
|-7----7----6-7"-9"-10"-9"-|
|---00---00-.--------------|
|   ..   ..
|--------------------------|
|--------------------------|
|--------------------------|
|-------------5"-7"--9"-7"-|gtr 2
|-7----7----6--------------|
|---00---00-.--------------|
    ..   ..


 Riff 3
|--------------------------------------|
|--------------------------------------|
|-9"--7"--5"----9"-7"-5"-7"--5"--4"----|
|--------------------------------------|gtr 1
|--------------------------------------|
|--------------------------------------|
|
|--------------------------------------|
|--------------------------------------|
|--------------------------------------|
|-10"-9"--7"----10"9"-7"-9"--7"--5"----|gtr 2
|--------------------------------------|
|--------------------------------------|

|-----------------------------------------|
|-----------------------------------------|
|-9"--7"--5"----9"-7"-5"------10"---------|
|------------------------7"--------7"-9"--|gtr 1
|-----------------------------------------|
|-----------------------------------------|
|
|-----------------------------------------|
|-----------------------------------------|
|-----------------------------10"---------|
|-10"-9"--7"----10"9"-7"-7"--------7"-9"--|gtr 2
|-----------------------------------------|
|-----------------------------------------|





 Riff 4  x2         x2
|----------|----------|
|----------|----------|
|----------|----------|
|-10--9----|-10--9----|both
|--7--7----|--6--6----|
|----------|----------|


 Riff 5                       x2                              x2
|-------------------------------|-------------------------------|
|-------------------------------|-------------------------------|
|-------------------------------|-------------------------------|
|-------------------------------|-------------------------------|gtr 1
|-3---------------3-2-0-2-0-2-3-|-2---------------2-3---3-5---7-|
|-1-1-111-1-111-1---------------|-0-0-000-0-000-0-----0-----0---|
|
|-------------------------------|-------------------------------|
|-------------------------------|-------------------------------|
|-------------------------------|-------------------------------|
|-------------------------------|-------------------------------|gtr 2
|-3---------------3-2-0-2-0-2-3-|-2---------------2-3---3-5---7-|
|-1-1-111-1-111-1---------------|-0-0-000-0-000-0-----0-----0---|



 Riff 6a
|---------------------|
|---------------------|
|---------------------|
|-5----5----4----4----|both
|-2----2----1----1----|
|-0----0----2----2----|



 Riff 6b             x2                     x1                      x1
|----------------------|----------------------|-----------------------|
|----------------------|----------------------|-----------------------|
|----------------------|----------------------|-----------------------|
|-----5--------5-7--5--|-----4--------4-5--4--|-4----4-5-7--5h7p5p4h5-|gtr 1
|---2--------2---------|---1--------1---------|-2---------------------|
|-0--------0-----------|-2--------2-----------|-----------------------|
|
|----------------------|----------------------|-----------------------|
|----------------------|----------------------|-----------------------|
|----------------------|----------------------|-----------------------|
|-5--------------------|-4--------------------|-4---------------------|gtr 2
|-2--------------------|-1--------------------|-2---------------------|
|-0--------------------|-2--------------------|-----------------------|



 Riff 7           x2                  x2
|-------------------|-------------------|
|-------------------|-------------------|
|-------------------|-------------------|
|----5~------5/7--5-|----4~------4/5--4-|gtr 1
|-------------------|-------------------|
|-32------32--------|-23------23--------|
| ..      ..          ..      ..
|-------------------|-------------------|
|-------------------|-------------------|
|-------------------|-------------------|
|-------------------|-------------------|gtr 2
|-------------------|-------------------|
|-3333....----------|-2222....----------|
  ....                ....

  Visit MetalTabs.com for more metal tablature

bottom separator

Contact Us | Privacy Policy | Disclaimer | Legal Notice
Copyright © 2001-2014 MetalTabs.com. All Rights Reserved.