top separator

Home

Forum

What's New

Submit a Tab

FAQ

Links

Contact Us

Link to Us

MetalTabs.com logo

Bands

0-9

A

B

C

D

E

F

G

H

I

J

K

L

M

N

O

P

Q

R

S

T

U

V

W

X

Y

Z

Search

What

Where
 

Holy Moses - "Death Bells II" Guitar Tab

Plain Text Version
More Holy Moses Tabs

Hits: 2013
Updated: 2007-06-04 03:09:13

 

By:

Daniil

sendpm.gif

email.gif

Important note
This tab is available online because we obtained explicit permission from Holy Moses or their label.


#----------------------------------PLEASE NOTE---------------------------------#
#This file is the author's own work and represents their interpretation of the #
#song. You may only use this file for private study, scholarship, or research. #
#Unless specified otherwise, this is NOT an official tab from the band members.#
#------------------------------------------------------------------------------#

  Visit MetalTabs.com for more metal tablature
  
HOLY MOSES-Death Bells 2
Strength, Power, Will, Passion-2005
Copyright Armageddeon
Transcribed by Daniil Laletin
e-mail: dlaletin@mail.ru
version 1.0 May 2006

All corrections are welcome.

 " - tremolo
 / - slide down
 \ - slide up
 . - palm mute
 ~ - long sound
 x - rest
 p - pull off
 h - hammer on
 tr - trill
 () - ghost note, sustained note
 * - artificial harmonics
 b - bend

 Tuning from low to high: D G C F A D
================================

 Riff 1a
|----------------------------------|
|----------------------------------|
|----------------------------------|
|----------------------------------|gtr 1
|----------------------------------|
|----------------------------------|
|
|----------------------------------|
|----------------------------------|
|----------------------------------|
|----------------------------------|gtr 2
|-----7h8-----5h7-----7h8-----8h10-|
|-0-0-----0-0-----0-0-----0-0------|
  ..     ..     ..     ..

|----------------------------------|
|----------------------------------|
|----------------------------------|
|----------------------------------|gtr 1
|----------------------------------|
|----------------------------------|
|
|----------------------------------|
|----------------------------------|
|----------------------------------|
|----------------------------------|gtr 2
|-----7h8-----5h7-----7h8-----8----|
|-0-0-----0-0-----0-0-----0-0-6----|
  . .     . .     . .     . .


 Riff 1b
|----------------------------------|
|----------------------------------|
|----------------------------------|
|----------------------------------|gtr 1
|----------------------------------|
|-0-0-0-0-0-0-0-0-0-0-0-0-0-0-0-0--|
| . . . . . . . . . . . . . . . .
|----------------------------------|
|----------------------------------|
|----------------------------------|
|----------------------------------|gtr 2
|-----7h8-----5h7-----7h8-----8h10-|
|-0-0-----0-0-----0-0-----0-0------|
  . .     . .     . .     . .

|----------------------------------|
|----------------------------------|
|----------------------------------|
|----------------------------------|gtr 1
|-----------------------------8----|
|-1-1-1-1-1-1-1-1-1-1-1-111---6----|
|
|----------------------------------|
|----------------------------------|
|----------------------------------|
|----------------------------------|gtr 2
|-----7h8-----5h7-----7h8-----8----|
|-0-0-----0-0-----0-0-----0-0-6----|
  ..     ..     ..     ..



 Riff 2        x3                x1
|----------------|-----------------|
|----------------|-----------------|
|----------------|-----------------|
|-----------3--3-|---6\5-------4/5-|both
|-----------1--1-|---4\3---5/6-2/3-|
|-0-0-00000------|-0-----0-3/4-----|



 Riff 3
|---------------------------------|
|---------------------------------|
|---------------------------------|
|---------------------------8/9---|both
|-7--------7----------7-----6/7---|
|-5-555555-5-55555555-5-555-------|
    ......   ........   ...
|----------------------------------|
|----------------------------------|
|----------------------------------|
|----------------------------5-4---|both
|-5\4------4--------3--------3-2-5-|
|-3\2-2222-2-222222-1-111111-----3-|
      ....   ......   ......


 Fill 1
|-------------------|
|-------------------|
|-------------------|
|----9\8--------7/8-|both
|----7\6----7/8-5/6-|
|-00-----00-5/6-----|




 Some sort of solo, with Riff 1b
|---------------------------------------------|
|---------------------------------------------|
|-16------16------17------16------14----16----|
|----1414----1414----1414----1414----14----14-|
|---------------------------------------------|
|---------------------------------------------|

|--------------------------------------|
|---------------------------------15---|
|-17------16------14------16-----------|
|----1414----1414----1414----1414------|
|--------------------------------------|
|--------------------------------------|

|---------------------------------------|
|---------------------------------------|
|-16------16------17------16------14----|
|----1414----1414----1414----1414----14-|
|---------------------------------------|
|---------------------------------------|

|------------------------------------------------|
|-------------15---------------------------------|
|-16----17----------17----16----14----16----17---|
|----14----14----14----14----14----14----14------|
|------------------------------------------------|
|------------------------------------------------|

|---------------------------------|
|---------------------------------|
|---------------------------------|
|-14------14------15------14------|
|----1414----1414----1414----1414-|
|---------------------------------|

|------------------------------------------------------|
|------------------------------------------------------|
|------------------------------------------------------|
|-12----14----15----17----15----14----12----14----15---|
|----14----14----14----14----14----14----14----14------|
|------------------------------------------------------|

|---------------------------------|
|---------------------------------|
|---------------------------------|
|-14------14------15------14------|
|----1414----1414----1414----1414-|
|---------------------------------|

|--------------------------------------------------|
|--------------------------------------------------|
|--------------------------------------------------|
|-12----14----15------14------12------15------14---|
|----14----14----1414----1414----1414----1414------|
|--------------------------------------------------|

                                        x4
|-----------------------------------------|
|-----------------------------------------|
|-----------------------------------------|
|-----------------------------------------|
|-7~---5h7-7~---5h8-8~---5h10-10~---11~---|
|-----------------------------------------|



 Outro
|---------------------------------------------------------|
|---------------------------------------------------------|
|---------------------------------------------------------|
|----9\8--------7/8----7\6--------5/6----5\4--------3/4---|both
|----7\6----7/8-5/6----5\4----5/6-3/4----3\2----3/4-1/2-2-|
|-00-----00-5/6-----00-----00-3/4-----00-----00-1/2-----0-|

  Visit MetalTabs.com for more metal tablature

bottom separator

Contact Us | Privacy Policy | Disclaimer | Legal Notice
Copyright © 2001-2014 MetalTabs.com. All Rights Reserved.