top separator

Home

Forum

What's New

Submit a Tab

FAQ

Links

Contact Us

Link to Us

MetalTabs.com logo

Bands

0-9

A

B

C

D

E

F

G

H

I

J

K

L

M

N

O

P

Q

R

S

T

U

V

W

X

Y

Z

Search

What

Where
 

Mithotyn - "Lord of ironhand" Guitar Tab

Plain Text Version
More Mithotyn Tabs

Hits: 2046
Updated: 2007-06-04 03:08:55

 

By:

Daniil

sendpm.gif

email.gif

Important note
This tab is available online because we obtained explicit permission from Mithotyn or their label.


#----------------------------------PLEASE NOTE---------------------------------#
#This file is the author's own work and represents their interpretation of the #
#song. You may only use this file for private study, scholarship, or research. #
#Unless specified otherwise, this is NOT an official tab from the band members.#
#------------------------------------------------------------------------------#

  Visit MetalTabs.com for more metal tablature
  
MITHOTYN-Lord Of Ironhand
Gathered Around The Oaken Table-1999
Copyright Invasion Records
Transcribed by Daniil Laletin
e-mail: dlaletin@mail.ru
version 1.0 December 2006

All corrections are welcome.

 " - tremolo
 / - slide down
 \ - slide up
 . - palm mute
 ~ - long sound
 x - rest
 p - pull off
 h - hammer on
 tr - trill
 () - ghost note, sustained note
 * - artificial harmonics
 b - bend

 Tuning from low to high: D G C F A D

================================

 Riff 1
|----------------------------------------------|
|----------------------------------------------|
|----------------------------------------------|
|-2-2-2-2-2-2--------------2-5--9-----------7--|gtr1
|-0-0-0-0-0-0-3-3-3-3-3-3--0-3--7-5----2----5--|
|-.-.-.-.-.-.-1-1-1-1-1-1---------3----0-------|
|             . . . . . .
|----------------------------------------------|
|----------------------------------------------|
|-------------------------------9--------------|
|-7----9-10---7--7h9h10-6--7-10---9--9h10p9-7--|gtr2
|----------------------------------------------|
|----------------------------------------------|

|----------------------------------------------|
|----------------------------------------------|
|----------------------------------------------|
|-2-2-2-2-2-2-------------7---7-7--------------|gtr1
|-0-0-0-0-0-0-5-5-5-5-5-5-5---5-5--5---5-5-----|
|-.-.-.-.-.-.-3-3-3-3-3-3----------3---3-3-----|
|             . . . . . .
|----------------------------------------------|
|----------------------------------------------|
|-9-99-7------------------12-1212-10-9-7--9-10-|
|---..---10-9---9h10p9-7-----------------------|gtr2
|----------------------------------------------|
|----------------------------------------------|

|-----------------------|
|-----------------------|
|-----------------------|
|-----------------------|gtr1
|-7-5----------7--2--5--|
|------8-7-5-3-5--0--3--|
|
|-----------------------|
|-----------------------|
|-9-7-------------------|
|-----10-9-7-5-7--------|gtr2
|-----------------7-----|
|--------------------8--|



 Riff 2a
|---------------------------------------------|
|---------------------------------------------|
|---------------------------------------------|
|---------------------------------------------|gtr1
|--------------------------------5-7--10-9-7--|
|-5--5-8-7-5-5h7p5-4-4--5--5-7-8--------------|
|
|---------------------------------------------|
|---------------------------------------------|
|---------------------------------------------|
|---------------------------------------------|gtr2
|--------------------------------5-7--10-9-7--|
|-5--5-8-7-5-5h7p5-4-4--5--5-7-8--------------|

|---------------------------------------------|
|---------------------------------------------|
|---------------------------------------------|
|---------------------------------------------|gtr1
|-----------------------------------7-5-7-----|
|-5--5-8-7-5-5h7p5-4-4--8-7-5-4-5-7-----------|
|
|---------------------------------------------|
|---------------------------------------------|
|---------------------------------------------|
|---------------------------------------------|gtr2
|-----------------------------------0--7-5-7--|
|-5--5-8-7-5-5h7p5-4-4--8-7-5-4-5-7-----------|




 Riff 2b
|---------------------------------------------|
|---------------------------------------------|
|-5--5-9-7-5-5h7p5-4-4--5--5-7-910-7--9-7-5-4-|
|---------------------------------------------|gtr1
|---------------------------------------------|
|---------------------------------------------|
|
|---------------------------------------------|
|---------------------------------------------|
|---------------------------------------------|
|---------------------------------------------|gtr2
|--------------------------------5-7--109-7---|
|-5--5-8-7-5-5h7p5-4-4--5--5-7-8--------------|

|---------------------------------------------|
|---------------------------------------------|
|-5--5-9-7-5-5h7p5-4-4--5-4-------4----5-4-5--|
|---------------------------7-6-7-------------|gtr1
|-----------------------------------7---------|
|---------------------------------------------|
|
|---------------------------------------------|
|---------------------------------------------|
|---------------------------------------------|
|---------------------------------------------|gtr2
|-----------------------------------0--7-5-7--|
|-5--5-8-7-5-5h7p5-4-4--8-7-5-4-5-7-----------|



 Riff 3
|---------------------------------------------------|
|---------------------------------------------------|
|---------------------------------------------------|
|-10------9------7--------7-9-10------9------7------|gtr1
|----0000---0000---0000-7--------8888---8888---8888-|
|---------------------------------------------------|
|
|---------------------------------------------------|
|---------------------------------------------------|
|---------------------------------------------------|
|---------------------------------------------------|gtr2
|--7------7------7------7-7-7--3------3------3------|
|--5-5555-5-5555-5-5555-0-0-0--1-1111-1-1111-1-1111-|

|------------------------------------------------------------|
|---------------------------------------------------------10-|
|------9-10------9------7~------------10-9-7------------9----|
|-7-10------0000---0000----------7-10----------6-9-7-10------|gtr1
|------------------------------8-------------7---------------|
|------------------------------------------------------------|
|
|------------------------------------------------------------|
|------------------------------------------------------------|
|------------------------------------------------------------|
|-9-9-9---7------7------7------5-------------9---------------|gtr2
|-7-7-7---5-5555-5-5555-5-5555-3-------5-----7-----7---------|
|--------------------------------------3-----------5---------|



 Riff 4
|-----------------------------------------------|
|-----------------------------------------------|
|--------------------------9--------------------|
|-2--2-4-5--4---2--5--9----7-9--9-7-5-7-5--2-4--|gtr1
|-0--0-2-3--2-5-0--3--7------7--7-5-3-5-3--0-2--|
|-------------3---------------------------------|
|
|-----------------------------------------------|
|-----------------------------------------------|
|--------------------------9--------------------|
|-2--2-4-5--4---2--5--9----7-9--9-7-5-7-5--2-4--|gtr2
|-0--0-2-3--2-5-0--3--7------7--7-5-3-5-3--0-2--|
|-------------3---------------------------------|

|------------------------------|
|----1-2-4--5--4h5p4-1h2p1-2---|
|-2----------------------------|
|------------------------------|gtr1
|------------------------------|
|------------------------------|
|
|------------------------------|
|------------------------------|
|------------------------------|
|------------------------------|gtr2
|-2--6-7-9-10----9--7--6---7---|
|-0--4-5-7--8----7--5--4---5---|




 Solo riff                            (1,3)
|------------------------------------------|
|------------------------------------------|
|-9----9----9----9----5----5----5----5-----|
|-7777777777777777777777777777777777777777-|both
|--....-....-....-....-....-....-....-....-|
|------------------------------------------|
                                      (2)
|------------------------------------------|
|------------------------------------------|
|-5----5----5----5----2----2----2----------|
|-33333333333333333333000000000000000-5--4-|both
|--....-....-....-....-....-....-....-3--2-|
|------------------------------------------|
                                      (4)
|------------------------------------------|
|------------------------------------------|
|-5----5----5----5----7----7---------------|
|-333333333333333333335555555555-----------|both
|--....-....-....-....-....-....-5----5----|
|--------------------------------3----3----|



 Riff 5                               (1,3)
|------------------------------------------|
|------------------------------------------|
|------------------------------------------|
|------------------------------------------|gtr1
|-7-7--------------------------------------|
|-5-5--------------------------------------|
|
|------------------------------------------|
|------------------------------------------|
|-9----9----9----9----5----5----5----5-----|
|-7777777777777777777777777777777777777777-|gtr2
|--....-....-....-....-....-....-....-....-|
|------------------------------------------|
                                        (2)
|------------------------------------------|
|------------------------------------------|
|------------------------------------------|
|------------------------------------------|gtr1
|-3-3-----------------5-5-------------3--2-|
|-1-1-----------------5-5-------------3--2-|
|
|------------------------------------------|
|------------------------------------------|
|-5----5----5----5----2----2----2----------|
|-33333333333333333333000000000000000-5--4-|gtr2
|--....-....-....-....-....-....-....-3--2-|
|------------------------------------------|
                       (4)
|-------------------------|
|-------------------------|
|-------------------------|
|-------------------------|both
|-3-3---------5-5---------|
|-1-1---------3-3---------|




 Riff 6
|------------------------------------------|
|------------------------------------------|
|-9----9----9------9-7-5----5----5-----9-7-|
|-777777777777777-10-9-777777777777777-7-7-|both
|--....-....-....-------....-....-....-----|
|------------------------------------------|

|------------------------------------------|
|------------------------------------------|
|-5----5----5-----5-4-2----2----2----------|
|-333333333333333-3-2-000000000000000-5--4-|both
|--....-....-....------....-....-....-3--2-|
|------------------------------------------|

|------------------------------------------|
|------------------------------------------|
|-5----5----5----5----7----7---------------|
|-333333333333333333335555555555-----------|both
|--....-....-....-....-....-....-5----5----|
|--------------------------------3----3----|



 Ending riff
|-----------------------------------|
|-----------------------------------|
|-9----9----9------9-7-5----5----5x-|
|-777777777777777-10-9-77777777777x-|both
|--....-....-....-------....-....---|
|-----------------------------------|

|----------------------------------------------|
|----------------------------------------------|
|-10----10----10----10----6----6----6----6-----|
|--88888-88888-88888-8888888888888888888888888-|gtr1
|---....--....--....--....-....-....-....-....-|
|----------------------------------------------|
|
|----------------------------------------------|
|----------------------------------------------|
|----------------------------------------------|
|----------------------------------------------|gtr2
|--8-8-----------------------------------------|
|--6-6-----------------------------------------|

|----------------------------------------------|
|----------------------------------------------|
|-6----6----6----6-----------------------------|
|-444444444444444444448----8----8-----6--5-3-3-|gtr1
|--....-....-....-....666666666666666-4--3-1-1-|
|----------------------....-....-....----------|
|
|----------------------------------------------|
|----------------------------------------------|
|----------------------------------------------|
|----------------------------------------------|gtr2
|-4-4-----------------6-6-------------4--3-1-1-|
|-2-2-----------------6-6-------------4--3-1-1-|

  Visit MetalTabs.com for more metal tablature

bottom separator

Contact Us | Privacy Policy | Disclaimer | Legal Notice
Copyright © 2001-2014 MetalTabs.com. All Rights Reserved.