top separator

Home

Forum

What's New

Submit a Tab

FAQ

Links

Contact Us

Link to Us

MuSpy.com

MetalTabs.com logo

Bands

0-9

A

B

C

D

E

F

G

H

I

J

K

L

M

N

O

P

Q

R

S

T

U

V

W

X

Y

Z

Search

What

Where
 

Thyrfing - "Eldfärd" Guitar Tab

Plain Text Version
More Thyrfing Tabs

Hits: 1715
Updated: 2007-06-04 03:08:28

 

By:

Daniil

sendpm.gif

email.gif

Important note
This tab is available online because we obtained explicit permission from Thyrfing or their label.


#----------------------------------PLEASE NOTE---------------------------------#
#This file is the author's own work and represents their interpretation of the #
#song. You may only use this file for private study, scholarship, or research. #
#Unless specified otherwise, this is NOT an official tab from the band members.#
#------------------------------------------------------------------------------#

  Visit MetalTabs.com for more metal tablature
  
THYRFING-Elfdard
Urkraft-2000
Copyright Hammerheart Records
Transcribed by Daniil Laletin
e-mail: dlaletin@mail.ru
version 1.0 June 2006

All corrections are welcome.

 " - tremolo
 / - slide down
 \ - slide up
 . - palm mute
 ~ - long sound
 x - rest
 p - pull off
 h - hammer on
 tr - trill
 () - ghost note, sustained note
 * - artificial harmonics
 b - bend

 Tuning from low to high: D G C F A D

================================

 Part I
|--------------12-10-8-5---|
|---5-6-10-8-6-------------|
|-7------------------------|
|--------------------------|gtr
|--------------------------|
|--------------------------|
|
|---------------5----------|
|--------3-----------------|
|-5--------------------5---|bass
|--------------------------|

|-5-5---------------------|
|-----8-6-5---------------|
|-----------7-5-5/7-7-7---|
|-------------------------|gtr
|-------------------------|
|-------------------------|
|
|-------------------------|
|---3---------------------|
|---------0-----3/5---5---|bass
|-------------------------|



 Part II
|----------------------------------------|
|---11-10h11p10p8-10-8h10p8p6-8----------|
|-7-----------------------------10-8-7---|
|----------------------------------------|gtr
|----------------------------------------|
|----------------------------------------|
|
|----------------------------------------|
|----5-----------------------------------|
|------------------8----------6------5---|bass
|----------------------------------------|

|---10-8-6-5---------------|
|------------8-6-7/8-8-8---|
|-7------------------------|
|--------------------------|gtr
|--------------------------|
|--------------------------|
|
|--------------------------|
|----8-----------------5---|
|----------8-----5---------|bass
|--------------------------|



 Part III
|---15-13-11-10---10-10------------|
|-8---------------------13-11-10---|
|----------------------------------|
|----------------------------------|gtr
|----------------------------------|
|----------------------------------|
|
|----------------------------------|
|---13-----------------------------|
|------------10------13------------|bass
|-----------------------------10---|

|-----------------------------|
|-10-13-11-9-8-7-8-10-8---7---|
|-----------------------9-----|
|-----------------------------|gtr
|-----------------------------|
|-----------------------------|
|
|-----------------------------|
|-----------------------------|
|----10------------12---------|bass
|------------10-----------10--|

  Visit MetalTabs.com for more metal tablature

bottom separator

Contact Us | Privacy Policy | Disclaimer | Legal Notice
Copyright © 2001-2014 MetalTabs.com. All Rights Reserved.