top separator

Home

Forum

What's New

Submit a Tab

FAQ

Links

Contact Us

Link to Us

MuSpy.com

MetalTabs.com logo

Bands

0-9

A

B

C

D

E

F

G

H

I

J

K

L

M

N

O

P

Q

R

S

T

U

V

W

X

Y

Z

Search

What

Where
 

Gorguts - "Hideous Infirmity" Guitar Tab

Plain Text Version
More Gorguts Tabs

Hits: 2672
Rated: 5.00 out of 5 (3 votes)
Updated: 2007-06-04 03:01:08

 

By:

Sycophant

sendpm.gif

email.gif

Important note
This tab is available online because we obtained explicit permission from Gorguts or their label.


#----------------------------------PLEASE NOTE---------------------------------#
#This file is the author's own work and represents their interpretation of the #
#song. You may only use this file for private study, scholarship, or research. #
#Unless specified otherwise, this is NOT an official tab from the band members.#
#------------------------------------------------------------------------------#

  Visit MetalTabs.com for more metal tablature
  
Author/Artist: Gorguts
Title: Hideous Infirmity
Album: The Erosion Of Sanity [1993 Roadrunner Records]
Transcribed by: Greg D. [Sycophant]
Email: sentience666@hotmail.com

Tune To C#
. = palm mutes
ph = pinch harmonic
Tremelo pick where applicable.
VERSION 1

0:00 - 0:02
Guitar 1
--------------------------|
--------------------------|
--------------------------|
--------------------------|
-3----------------2---1---|
-1--------4-3-2-1---3---2-|
          . . . . . . . .

0:00 - 0:02
Guitar 2
--------------------------|
--------------------------|
--------------------------|
-----------------3---0----|
-1-------6-5-4-3---2---1--|
-0------------------------|
         . . . . . . . .

0:02 - 0:10
Guitar 1
------------------------------------------------------------------------------
------------------------------------------------------------------------------
------------------------------------------------------------------------------
-----------------------------------------------------------------5-5-4-4------
---------------------------------------------------------6-6-5-5--------------
-333--222--444--333--2222111122220000333--222--444--333-----------------------
 ...  ...  ...  ...                  ...  ...  ...  ...  . . . . . . . . x2

0:02 - 0:10
Guitar 2
------------------------------------------------------------------------------
------------------------------------------------------------------------------
-----------------------------------------------------------------4-4-3-3------
---------------------------------------------------------5-5-4-4--------------
-555--444--666--555------------------555--444--666--555-----------------------
---------------------2222111122220000-----------------------------------------
 ...  ...  ...  ...                  ...  ...  ...  ...  . . . . . . . . x2

0:10 - 0:29
Guitar 1
------------------------------------------------------------------------------
------------------------------------------------------------------------------
------------------------------------------------------------------------------
------------------------------------------------------------------------------
------------------------------------------3---2-------------------------------
-222211114-2-1-4-1111000022221111-4-2-1-4---3---2-3-1-------------------------
         . . . .                  . . . . . . . . . .

0:10 - 0:29
Guitar 2
------------------------------------------------------------------------------
------------------------------------------------------------------------------
------------------------------------------------------------------------------
------------------------------------------2---1-------------------------------
---------6-4-3-6------------------6-4-3-3---2---1-2-0-------------------------
-22221111--------1111000022221111---------------------------------------------
         . . . .                  . . . . . . . . . .


0:29 - 0:30   0:37 - 0:40
Guitar 1      Guitar 1
-------------|-------------------------|
-------------|-------------------------|
-------------|-------------------------|
-------------|-------------------------|
-----3---1---|-4--3--4--2-----------ph-|
-1-4---2---2-|-2--1--2--0--2--1--3--3--|
 . . . . . .   .           .

0:29 - 0:30   0:37 - 0:40
Guitar 2      Guitar 2
-------------|-------------------------|
-------------|-------------------------|
-------------|-------------------------|
-----2---1---|-------------------------|
-3-3---2---1-|-4--3--4--2--1--0--2--1--|
-------------|-2--1--2--0--2-----------|
 . . . . . . .             .

0:40 - 0:48
Both Guitars
------------------------------------------------------------------------------
------------------------------------------------------------------------------
------------------------------------------------------------------------------
---------------------ph-----ph---------------------ph------ph-----------------
---2-----3-1---1-----3------3----2-----3-1---1-----3-------3----2-----3-1---1-
-3---2-1-----3---2-1----1h2----3---2-1-----3---2-1----1h2-----3---2-1-----3---
 . . . . . . . . . .           . . . . . . . . . .            . . . . . . . .

					    0:48 - 0:56
                                            Both Guitars
-------------------------------------------|----------------------------------
-------------------------------------------|----------------------------------
-------------------------------------------|----------------------------------
-----ph-----ph---------------------ph------|---------------------ph-----------
-----3------3----2-----3-1---1-----3--4--3-|---2-----3-1---1-----3--4--3----2-
-2-1----1h2----3---2-1-----3---2-1----2--1-|-3---2-1-----3---2-1----2--1--3---
 . .           . . . . . . . . . .    .  .   . . . . . . . . . .    .  .  . .

------------------------------------------------------------------------------
------------------------------------------------------------------------------
------------------------------------------------------------------------------
-----------------ph---------------------------ph---------------------------ph-
-----3-1---1-----3--4--3----2-----3-1---1-----3--4--3----2-----3-1---1-----3--
-2-1-----3---2-1----2--1--3---2-1-----3---2-1----2--1--3---2-1-----3---2-1----
 . . . . . . . .          . . . . . . . . . .          . . . . . . . . . .

0:56 - 1:15
Guitar 1
----------------------------------------------|
----------------------------------------------|
----------------------------------------------|
----------------------------------------------|
-0--3--4--2--1--0--2--ph-------------------ph-|
-2--1--2--0--3--2--4--3--2--0--1--3--4--1--3--|
 .           .

0:56 - 1:15
Guitar 2                                       1:15 - 1:16 Both Guitars
----------------------------------------------|-------------------------------
----------------------------------------------|-------------------------------
----------------------------------------------|-------------------------------
----------------------------------------------|-------------------------------
-0--3--4--2--1--0--2--1-----------------------|-4--3--------------------------
-2--1--2--0--3--2--4--3--2--0--1--3--4--1--3--|-2--1--------------------------
 .           .                                  .  .

1:16 - 1:25
Guitar 1
------------------------------------------------------------------------------
------------------------------------------------------------------------------
------------------------------------------------------------------------------
------------------------------------------------------------------------------
------------------------------------------------------------------------------
-1111444433332222444455555555222211114444333322224444555555552222-------------
                                                                  x2
1:16 - 1:25
Guitar 2
------------------------------------------------------------------------------
------------------------------------------------------------------------------
------------------------------------------------------------------------------
------------------------------------------------------------------------------
-3333666655554444666677777777444433336666555544446666777777774444-------------
------------------------------------------------------------------------------
                                                                  x2

1:25 - 1:33
Guitar 1
------------------------------------------------------------------------------
------------------------------------------------------------------------------
------------------------------------------------------------------------------
------------------------------------------------------------------------------
-2-3-----------------2-2-6-6-5-4-2-3-------------5--4--7--6-------------------
-----2-2-1-1-4-4-3-3-----------------2-2-1-1-4-4-3--2--5--4-------------------
 . . . . . . . . . . . . . . . . . . . . . . . . .  .  .  . x2

1:25 - 1:33
Guitar 2
------------------------------------------------------------------------------
------------------------------------------------------------------------------
------------------------------------------------------------------------------
------------------------------------------------------------------------------
-2-3-----------------2-2---------2-3-------------5--4--7--6-------------------
-----2-2-1-1-4-4-3-3-----4-4-3-2-----2-2-1-1-4-4-3--2--5--4-------------------
 . . . . . . . . . . . . . . . . . . . . . . . . .  .  .  . x2


- then play 1:16 - 1:25 riff again

1:37 - 1:52
Guitar 1
------------------------------------------------------------------------------
------------------------------------------------------------------------------
------------------------------------------------------------------------------
------------------------------------------------------------------------------
-----------------3-2---2-----------------------3-2---2------------------------
-2--22222b3r2--1-----3---3b4r3-2--22222b3r2--1-----3---3b4r3------------------
 .  ....       . . . . .       .  ....       . . . . .

1:37 - 1:52
Guitar 2
------------------------------------------------------------------------------
------------------------------------------------------------------------------
------------------------------------------------------------------------------
-----------------------------------------------3-2---2------------------------
-4--44444b5r4----3-2---2-------4--44444b5r4--1-----3---2b3r2------------------
---------------1-----3---3b4r3------------------------------------------------
 .  ....       . . . . .       .  ....       . . . . .

1:52 - 2:01 Both Guitars
--------------------------------------------------------------|
--------------------------------------------------------------|
--------------------------------------------------------------|
---------------------ph-----ph---------------------ph------ph-|
---2-----3-1---1-----3------3----2-----3-1---1-----3-------3--|
-3---2-1-----3---2-1----1h2----3---2-1-----3---2-1----1h2-----|
 . . . . . . . . . .           . . . . . . . . . .          x4


2:01 - 2:22
Guitar 1
------------------------------------------------------------------------------
------------------------------------------------------------------------------
------------------------------------------------------------------------------
----------------ph------------------------------------------------------------
-2----4/5-4--3--3-----------------------------------------4-------------------
-0----2/3-2--1-----333--2-2-2-2-663--7-3-6-3-5/6--5-6-5-6---------------------
          .  .     ...  . . . . ...  . . . .      . . . .   x4

2:01 - 2:22
Guitar 2
------------------------------------------------------------------------------
------------------------------------------------------------------------------
------------------------------------------------------------------------------
----------------------------------------------------------3-------------------
-2----4/5-4--3--6--555--4-4-4-4-885--9-5-8-5-3/4--3-4-3-4---------------------
-0----2/3-2--1--4-------------------------------------------------------------
          .  .     ...  . . . . ...  . . . .      . . . .   x4

2:22 - 2:40
Guitar 1
------------------------------------------------------------------------------
------------------------------------------------------------------------------
------------------------------------------------------------------------------
---------------------------5/6----5------4\3----------------------------------
-2----4/5-4--3--6--2-2-3-------------4-5-2\1----------------------------------
-0----2/3-2--1--4--0-0-1---3/4----3--2-3--------------------------------------
          .  .     . . .             . .    x4

2:22 - 2:40
------------------------------------------------------------------------------
------------------------------------------------------------------------------
------------------------------------------------------------------------------
----------------ph---------5/6----5------4\3----------------------------------
-2----4/5-4--3--3--2-2-3-------------4-5-2\1----------------------------------
-0----2/3-2--1-----0-0-1---3/4----3--2-3--------------------------------------
          .  .     . . .             . .    x4

- play 1:16 - 1:25 riff under solo

2:49 - 2:57
Guitar 1
------------------------------------------------------------------------------
------------------------------------------------------------------------------
------------------------------------------------------------------------------
------------------------------------------------------------------------------
-3-3-----------------2-2---------3-3-------------5--4--7--6-------------------
-----1-1-0-0-4-4-3-3-----4-4-3-1-----1-1-0-0-4-4-3--2--5--4-------------------
 . . . . . . . . . . . . . . . . . . . . . . . . .  .  .  .  x2

2:49 - 2:57
Guitar 2
------------------------------------------------------------------------------
------------------------------------------------------------------------------
------------------------------------------------------------------------------
-5-5-----------------4-4---------5-5------------------------------------------
-----3-3-2-2-6-6-5-5-----6-6-5-3-----3-3-2-2-6-6-5--4--7--6-------------------
-------------------------------------------------3--2--5--4-------------------
 . . . . . . . . . . . . . . . . . . . . . . . . .  .  .  .  x2

- play 1:52 - 2:01 under 2nd solo

3:34 - 3:36
Guitar 1
----------------------|
----------------------|
----------------------|
----------------------|
-5----4---3---2-------|
-3----2-4---3---2-3-1-|
        . . . . . . .

3:34 - 3:36
Guitar 2
----------------------|
----------------------|
----------------------|
----------2---1-------|
-1----0-3---2---1-2-0-|
-3----2---------------|
 .    . . . . . . . .

4:03 - end
Guitar 1
-----------------|
-----------------|
-----------------|
---------5-2---2-|
-1-4-1-4-----4-0-|
-----------------|
 . . . . . . .

4:03 - end
Guitar 2
---------3-------|
-----------5-----|
-3-6-3-6-----6-2-|
-----------------|
-----------------|
-----------------|
 . . . . . . .

  Visit MetalTabs.com for more metal tablature

bottom separator

Contact Us | Privacy Policy | Disclaimer | Legal Notice
Copyright © 2001-2014 MetalTabs.com. All Rights Reserved.