top separator

Home

Forum

What's New

Submit a Tab

FAQ

Links

Contact Us

Link to Us

MetalTabs.com logo

Bands

0-9

A

B

C

D

E

F

G

H

I

J

K

L

M

N

O

P

Q

R

S

T

U

V

W

X

Y

Z

Search

What

Where
 

Summoning - "Northward" Guitar Tab

Plain Text Version
More Summoning Tabs

Hits: 3291
Rated: 5.00 out of 5 (1 vote)
Updated: 2007-06-04 03:00:33

 

By:

PutridWinds

sendpm.gif

email.gif

Important note
This tab is available online because we obtained explicit permission from Summoning or their label.


#----------------------------------PLEASE NOTE---------------------------------#
#This file is the author's own work and represents their interpretation of the #
#song. You may only use this file for private study, scholarship, or research. #
#Unless specified otherwise, this is NOT an official tab from the band members.#
#------------------------------------------------------------------------------#

  Visit MetalTabs.com for more metal tablature
  
Band: Summoning
Album: Oath Bound
Song: Northward

Tab: PutridWind
Contact: putridwinds@gmail.com

Northward

Riff 1
E||--------------------|--------------------|--------------------|
B||--------------------|--8-----------------|--6--------6--------|
G||--8-----5--7--8-----|--------8-----8-----|--------7--------7--|
D||-----5-----------5--|-----5-----5-----5--|-----8--------8-----|
A||--------------------|--------------------|--------------------|
E||--------------------|--------------------|--------------------|


--------------------|--------------------|--------------------|
--------------------|--------------------|--6--------6--------|
--5-----5--8--5-----|--8-----5--7--8-----|--------8-----8-----|
-----5-----------5--|-----5-----------5--|-----5-----------5--|
--------------------|--------------------|--------------------|
--------------------|--------------------|--------------------|


--------------------|--------------------|
--------------------|--------------------|
--7--------7--5-----|--7-----5--8--5-----|
-----5--8--------5--|-----5-----------5--|
--------------------|--------------------|
--------------------|--------------------|


Riff 2 (tremelo picked)
-------------------|--------------------|--------------------|
-------------------|--11----------------|--11----------------|
--7----------------|--------------------|--------------------|
-------------------|--------------------|--------------------|
-------------------|--------------------|--------------------|
-------------------|--------------------|--------------------|


-------------------|-------------------|--------------------|
-------------------|--8----------------|--11----------------|
--7----------------|-------------------|--------------------|
-------------------|-------------------|--------------------|
-------------------|-------------------|--------------------|
-------------------|-------------------|--------------------|


--------------8--------|-------------------||
--11-------------10----|-------------------||
-----------------------|--7----------------||
-----------------------|-------------------||
-----------------------|-------------------||
-----------------------|-------------------||

  Visit MetalTabs.com for more metal tablature

bottom separator

Contact Us | Privacy Policy | Disclaimer | Legal Notice
Copyright © 2001-2014 MetalTabs.com. All Rights Reserved.