top separator

Home

Forum

What's New

Submit a Tab

FAQ

Links

Contact Us

Link to Us

MetalTabs.com logo

Bands

0-9

A

B

C

D

E

F

G

H

I

J

K

L

M

N

O

P

Q

R

S

T

U

V

W

X

Y

Z

Search

What

Where
 

Summoning - "Menegroth" Guitar Tab

Plain Text Version
More Summoning Tabs

Hits: 2575
Updated: 2007-06-04 02:32:28

 

By:

PutridWinds

sendpm.gif

email.gif

Important note
This tab is available online because we obtained explicit permission from Summoning or their label.


#----------------------------------PLEASE NOTE---------------------------------#
#This file is the author's own work and represents their interpretation of the #
#song. You may only use this file for private study, scholarship, or research. #
#Unless specified otherwise, this is NOT an official tab from the band members.#
#------------------------------------------------------------------------------#

  Visit MetalTabs.com for more metal tablature
  
Band: Summoning
Album: Oath Bound
Song: Menegroth

(c)2006 Napalm Records

Tab: PutridWinds, putridwinds@gmail.com

Menegroth

Riff 1
E||--------------------|--------------------|--------------------|
B||--------------------|--------------------|--8-----8-----------|
G||--7-----7-----5--7--|--5-----5-----5--7--|-----7-----7-----5--|
D||-----5-----5--------|-----5-----5--------|--------------5-----|
A||--------------------|--------------------|--------------------|
E||--------------------|--------------------|--------------------|


--------------------|--------------------|--------------------|
--8-----8-----------|--------------------|--------------------|
-----5-----5-----5--|--7-----7-----5--7--|--5-----5-----5--7--|
--------------5-----|-----5-----5--------|-----5-----5--------|
--------------------|--------------------|--------------------|
--------------------|--------------------|--------------------|


--------------------|--------------------|
--------------------|--------------------|
--9-----9-----9--7--|--9-----9-----5--7--|
-----9-----9--------|-----7-----7--------|
--------------------|--------------------|
--------------------|--------------------|


Riff 2 (tremelo picked)
----------------|---------------|--------------|---------------|
----------------|---------------|--------------|--8------------|
----------------|--7------------|--------------|---------------|
--10------------|---------------|--------------|---------------|
----------------|---------------|--------------|---------------|
----------------|---------------|--------------|---------------|


----------------|---------------|----------------|---------------||
----------------|---------------|--10------------|---------------||
----------------|--7------------|----------------|--7------------||
--10------------|---------------|----------------|---------------||
----------------|---------------|----------------|---------------||
----------------|---------------|----------------|---------------||

  Visit MetalTabs.com for more metal tablature

bottom separator

Contact Us | Privacy Policy | Disclaimer | Legal Notice
Copyright © 2001-2014 MetalTabs.com. All Rights Reserved.