top separator

Home

Forum

What's New

Submit a Tab

FAQ

Links

Contact Us

Link to Us

MetalTabs.com logo

Bands

0-9

A

B

C

D

E

F

G

H

I

J

K

L

M

N

O

P

Q

R

S

T

U

V

W

X

Y

Z

Search

What

Where
 

Summoning - "Land of the Dead" Guitar Tab

Plain Text Version
More Summoning Tabs

Hits: 6316
Rated: 5.00 out of 5 (2 votes)
Updated: 2007-06-04 02:32:14

 

By:

PutridWinds

sendpm.gif

email.gif

Important note
This tab is available online because we obtained explicit permission from Summoning or their label.


#----------------------------------PLEASE NOTE---------------------------------#
#This file is the author's own work and represents their interpretation of the #
#song. You may only use this file for private study, scholarship, or research. #
#Unless specified otherwise, this is NOT an official tab from the band members.#
#------------------------------------------------------------------------------#

  Visit MetalTabs.com for more metal tablature
  
Band: Summoning
Album: Oath Bound
Song: Land of the Dead

(c)2006 Napalm Records

Tab: PutridWinds, putridwinds@gmail.com

Land of the Dead

Riff 1
E||-------------------------|------------------------|-----------------------|
B||--8----------------------|------------------------|-----------------------|
G||-------------------------|--8----------------7----|--8--------------------|
D||-------10----------10----|-------------10---------|-------8----------8----|
A||-------------10----------|-------11---------------|------------10---------|
E||-------------------------|------------------------|-----------------------|


-----------------------|-------------------------|-----------------------|
-------------8---------|--8----------------------|--9---------------8----|
--7---------------7----|-------------------------|-------8---------------|
-----------------------|-------10----------10----|-----------------------|
-------10--------------|-------------10----------|------------11---------|
-----------------------|-------------------------|-----------------------|


----------------------|-----------------------|
------------8---------|-------------8---------|
--8--------------8----|--7---------------7----|
-------8--------------|-----------------------|
----------------------|-------10--------------|
----------------------|-----------------------|


Riff 2 (tremelo picked)
-------------------|------------------|-------------------|-------------------|
-------------------|------------------|-------------------|-------------------|
--5----------------|------------------|--8----------------|--7----------------|
-------------------|------------------|-------------------|-------------------|
-------------------|------------------|-------------------|-------------------|
-------------------|------------------|-------------------|-------------------|


-------------------|-------------------|-------------------|-------------------|
-------------------|-------------------|-------------------|-------------------|
--8----------------|--5----------------|--8----------------|--7----------------|
-------------------|-------------------|-------------------|-------------------|
-------------------|-------------------|-------------------|-------------------|
-------------------|-------------------|-------------------|-------------------|


-------------------|-------------------|-------------------|-------------------|
--8----------------|-------------------|-------------------|--8----------------|
-------------------|--8----------------|--7----------------|-------------------|
-------------------|-------------------|-------------------|-------------------|
-------------------|-------------------|-------------------|-------------------|
-------------------|-------------------|-------------------|-------------------|


-------------------|-------------------|-------------------|-------------------|
-------------------|-------------------|-------------------|-------------------|
--8----------------|--5----------------|-------------------|--7----------------|
-------------------|-------------------|--8----------------|-------------------|
-------------------|-------------------|-------------------|-------------------|
-------------------|-------------------|-------------------|-------------------|

  Visit MetalTabs.com for more metal tablature

bottom separator

Contact Us | Privacy Policy | Disclaimer | Legal Notice
Copyright © 2001-2014 MetalTabs.com. All Rights Reserved.