top separator

Home

Forum

What's New

Submit a Tab

FAQ

Links

Contact Us

Link to Us

MetalTabs.com logo

Bands

0-9

A

B

C

D

E

F

G

H

I

J

K

L

M

N

O

P

Q

R

S

T

U

V

W

X

Y

Z

Search

What

Where
 

Cock and Ball Torture - "Poontang Clan" Guitar Tab

Plain Text Version
More Cock and Ball Torture Tabs

Hits: 3158
Rated: 5.00 out of 5 (1 vote)
Updated: 2007-04-14 02:29:16

 

By:

Licky Webster

sendpm.gif

email.gif

Important note
This tab is available online because we obtained explicit permission from Cock and Ball Torture or their label.


#----------------------------------PLEASE NOTE---------------------------------#
#This file is the author's own work and represents their interpretation of the #
#song. You may only use this file for private study, scholarship, or research. #
#Unless specified otherwise, this is NOT an official tab from the band members.#
#------------------------------------------------------------------------------#

  Visit MetalTabs.com for more metal tablature
  
Cock And Ball Torture
Barefoot And Hungry
Poontang Clan

Copyright (c)  Lofty Storm Records 2001
Version 1.0 - 1.4.2007

Transcribed By: Yaniv D.
Email:          lickywebster@yahoo.com


.  - palm mute           /  - slide up to
\  - slide down to       ~  - vibrato
h  - hammer on           b  - Bend
p  - pull off            Suffixes for bend
t  - tap                 f  - full bend    h - half bend
ph - pinched harmonic    q  - quarter bend t - tap bend
*  - see comment         ^  - Hold bend    r release bend
x  - Stuccatto           ~  - vibrato bend
,  - slight palm mute    () - ghost note, sustained note
"  - tremolo note        <> - Trill

Tuning is G standard


Riff A x14
|------------------------------------|
|------------------------------------|
|------------------------------------|
|---2---------2--------------2-------|
|-5-2-------1-2-5-6------3-5-2-3-0---|
|-3---------1---3-4------1-3---1-0---|
                               . .
Riff B1 x8         Riff B2 x4
|-----------------||-----------------|
|-----------------||-----------------|
|-----------------||-----------------|
|-0-3-1-2---------||-0-3-1-2---------|
|-0-3-1-0-0-1-3-2-||-0-3-1-0-0-1-3-2-|
|---------0-1-3-0-||---------0-1-3-0-|
                       . . . . . . .

Riff B1 x8
Riff A  x

Passage x1
|L
|-----------------------------------------------------------------|
|-----------------------------------------------------------------|
|-----------------------------------------------------------------|
|-----------------------------------------------------------------|
|-3---2---5---2---2---3---3-2-1---3---2---5---2---2---3---3-2-1---|
|-1---0---3---0---0---1---3-2-1---1---0---3---0---0---1---3-2-1---|
| .   .       .   .   .   . . .   .   .       .   .   .   . . .
|R
|-----------------------------------------------------------------|
|-----------------------------------------------------------------|
|-----------------------------------------------------------------|
|-----------------------------------------------------------------|
|-3-----------------------3-2-1---3-------------------3---3-2-1---|
|-1-----------------------3-2-1---1-------------------1---3-2-1---|
  .                       . . .   .                   .   . . .
Riff C1 x4                        Riff C2 x2
|--------------------------------||---------------------------------|
|--------------------------------||---------------------------------|
|--------------------------------||---------------------------------|
|--------------------------------||---------------------------------|
|-3---2---5---2---2---3---3-2-1--||-3---2---5---2---2---3---3-2-1---|
|-1---0---3---0---0---1---3-2-1--||-1---0---3---0---0---1---3-2-1---|
  .   .       .   .   .   . . .

Riff C1 x4
Riff B1 x8
Riff B2 x4
Riff B1 x8

Riff A  x2
Riff C1 x8

End x1
|-----------|
|-----------|
|-----------|
|-----------|
|-3-2-------|
|-1-0-------|
  .


END

  Visit MetalTabs.com for more metal tablature

bottom separator

Contact Us | Privacy Policy | Disclaimer | Legal Notice
Copyright © 2001-2014 MetalTabs.com. All Rights Reserved.