top separator

Home

Forum

FAQ

Contact Us

Link to Us

MetalTabs.com logo

Bands

0-9

A

B

C

D

E

F

G

H

I

J

K

L

M

N

O

P

Q

R

S

T

U

V

W

X

Y

Z

Ithdabquth Qliphoth - "Orci OstiÓ Custodus Flammei Fames Aeternus" Guitar Tab

Plain Text Version
More Ithdabquth Qliphoth Tabs

Hits: 1666
Updated: 2007-04-14 02:28:50

By:


#----------------------------------PLEASE NOTE---------------------------------#
#This file is the author's own work and represents their interpretation of the #
#song. You may only use this file for private study, scholarship, or research. #
#Unless specified otherwise, this is NOT an official tab from the band members.#
#------------------------------------------------------------------------------#

  Visit MetalTabs.com for more metal tablature
  
Band: Ithdabquth Qliphoth
Album: unnamed
Label: Thou Shalt Kill
Song: Orci Ostiо Custodus Flammei Fames Aeternus
Band Contact and CD's order: http://qliphoth777.cjb.net

========================================
= LISTEN ORIGINAL CD FOR CORRECT TEMPO =
========================================

Duration Legend
---------------
W - whole
H - half
Q - quarter
E - 8th
S - 16th
T - 32nd
X - 64th
. - note dotted


      E  E  E  E  E  E  E  E     E  E  E  E  E  E  E  E
D||---------------------------|--------------------------|
A||---------------------------|--------------------------|
F||*--------7-----5-----7-----|--------8-----7-----5-----|
C||*--5--5-----5-----5-----5--|--5--5-----5-----5-----5--|
G||---------------------------|--------------------------|
D||---------------------------|--------------------------|


  E  E  E  E  E  E  E  E     E  E  E  E  E  E  E  E
--------------------------|---------------------------||
--------------------------|---------------------------||
--------7-----5-----7-----|--5-----5-----3-----2-----*||
--5--5-----5-----5-----5--|-----3-----3-----3-----3--*||
--------------------------|---------------------------||
--------------------------|---------------------------||


   E  E  E  E  E  E  E  E     E  E  E  E  E  E  E  E
---------------------------|--------------------------|
---------------------------|--------------------------|
*--------0-----2-----0-----|--------0-----3-----2-----|
*--0--0-----0-----0-----0--|--1--1-----1-----1-----1--|
---------------------------|--------------------------|
---------------------------|--------------------------|


  E  E  E  E  E  E  E  E     E  E  E  E  E  E  E  E
--------------------------|---------------------------||
--------------------------|---------------------------||
--------0-----2-----0-----|--3-----3-----2-----------*||
--0--0-----0-----0-----0--|-----1-----1-----1--3-----*||
--------------------------|---------------------------||
--------------------------|---------------------------||


  E  E  E  E  E  E  E  E     E  E  E  E  E  E  E  E
--------------------------|--------------------------|
--------------------------|--------------------------|
--------0-----2-----0-----|--3-----3-----2-----3-----|
--0--0-----0-----0-----0--|-----1-----1-----1-----1--|
--------------------------|--------------------------|
--------------------------|--------------------------|


  E  E  E  E  E  E  E  E     E  E  E  E  E  E  E  E
--------------------------|--------------------------|
--------------------------|--------------------------|
--5-----5-----3-----5-----|--7-----7-----8-----7-----|
-----3-----3-----3-----3--|-----5-----5-----5-----5--|
--------------------------|--------------------------|
--------------------------|--------------------------|


  E  E  E  E  E  E  E  E     E  E  E  E  E  E  E  E
--------------------------|--------------------------|
--------------------------|--------------------------|
--------0-----2-----0-----|--3-----3-----2-----3-----|
--0--0-----0-----0-----0--|-----1-----1-----1-----1--|
--------------------------|--------------------------|
--------------------------|--------------------------|


  E  E  E  E  E  E  E  E     E  E  E  E  E  E  E  E
--------------------------|--------------------------|
--------------------------|--------------------------|
--3-----3-----2-----3-----|--5-----8-----7-----5-----|
-----1-----1-----1-----1--|-----3-----5-----5-----5--|
--------------------------|--------------------------|
--------------------------|--------------------------|


    E  E  E  E  E  E  E  E     E  E  E  E  E  E  E  E
|---7-----7-----7-----8-----|--7-----7-----6-----6------||
|------7-----7-----7-----7--|-----7-----7-----6-----6---||
|*--------------------------|--------------------------*||
|*--------------------------|--------------------------*||
|---------------------------|---------------------------||
|---------------------------|---------------------------||

  Visit MetalTabs.com for more metal tablature

bottom separator

Contact Us | Privacy Policy | Disclaimer
Copyright © 2001-2014 MetalTabs.com. All Rights Reserved.