top separator

Home

Forum

What's New

Submit a Tab

FAQ

Links

Contact Us

Link to Us

MetalTabs.com logo

Bands

0-9

A

B

C

D

E

F

G

H

I

J

K

L

M

N

O

P

Q

R

S

T

U

V

W

X

Y

Z

Search

What

Where
 

Brocken Moon - "Die Einsamkeit meiner Seele" Guitar Tab

Plain Text Version
More Brocken Moon Tabs

Hits: 3185
Rated: 3.60 out of 5 (5 votes)
Updated: 2007-04-14 02:28:08

 

By:

XXX

sendpm.gif

email.gif

Important note
This tab is available online because we obtained explicit permission from Brocken Moon or their label.


#----------------------------------PLEASE NOTE---------------------------------#
#This file is the author's own work and represents their interpretation of the #
#song. You may only use this file for private study, scholarship, or research. #
#Unless specified otherwise, this is NOT an official tab from the band members.#
#------------------------------------------------------------------------------#

  Visit MetalTabs.com for more metal tablature
  
Band:  BROCKEN MOON
Album: MONDFINSTERNIS
Song:  DIE EINSAMKEIT MEINER SEELE

Copyright (c)  Christhunt Productions 2005
Version 1.0 - 6.4.2005

Transcribed By: Blashyrkh
Email:          Blashyrkh@azet.sk


.  - palm mute           /  - slide up to
\  - slide down to       ~  - vibrato
h  - hammer on           b  - Bend
p  - pull off            Suffixes for bend
t  - tap                 f  - full bend    h - half bend
ph - pinched harmonic    q  - quarter bend t - tap bend
*  - see comment         ^  - Hold bend    r release bend
x  - Stuccatto           ~  - vibrato bend
,  - slight palm mute    () - ghost note, sustained note
"  - tremolo note        <> - Trill

Tuning E A D G B E

Riff 1   distorted guitar
|---------------------------------|---------------------------------|
|---------------------------------|---------------------------------|
|---------------------------------|---------------------------------|
|-101010109-9-7-7-5-5-5-5-2-2-2-2-|-101010109-9-7-7-5-5-5-5-2-2-2-2-|
|-0-0-0-0-0-0-0-0-0-0-0-0-0-0-0-0-|-0-0-0-0-0-0-0-0-0-0-0-0-0-0-0-0-|
|---------------------------------|---------------------------------|

|---------------------------------|---------------------------------|
|---------------------------------|---------------------------------|
|-101010109-9-7-7-5-5-5-5-2-2-2-2-|-101010109-9-7-7-5-5-5-5-2-2-2-2-|
|-0-0-0-0-0-0-0-0-0-0-0-0-0-0-0-0-|-0-0-0-0-0-0-0-0-0-0-0-0-0-0-0-0-|
|---------------------------------|---------------------------------|
|---------------------------------|---------------------------------|


Riff 2    clean guitar
|-----------------|----------------|-------------------|-----------------|
|-----5-------5---|----------------|-------------------|-----------------|
|---5---5---5-----|----4-------4---|-----4-------45--4-|-5-4-------------|
|-7-------7-------|--6---6---6---6-|---5---5---5-------|-----7---7---7-5-|
|---------------5-|7-------7-------|-7-------7---------|-------7---7-----|
|-----------------|----------------|-------------------|-----------------|


Riff 3    distorted guitar
|----------------|---------------------|----------------|---------------------|
|----------------|---------------------|----------------|---------------------|
|----------------|---------------------|----------------|---------------------|
|-7-7-7-7-10--7--|---------------------|-7-7-7-7-10--7--|-------------9-9-9-9-|
|-5-5-5-5-8---5--|-10-10-10-10-7-7-7-7-|-5-5-5-5-8---5--|-10-10-10-10-7-7-7-7-|
|----------------|-8--8--8--8--5-5-5-5-|----------------|-8--8--8--8----------|


Riff 4a    clean guitar
|-----------------|-----------------|
|-----------------|-----------------|
|-----5-------5---|-----------------|
|---5---5---4---4-|-----2--3-5--3-0-|
|-3-------2-------|-0---------------|
|-----------------|-----------------|


Riff 4b   clean guitar
|-----------------|-----------------|
|-----------------|-----------------|
|-----5-------5---|-----------------|
|---5---5---4---4-|-----5-----------|
|-3-------2-------|-3-3---3-2-2-3-2-|
|-----------------|-----------------|


Riff 1 : 13x
Riff 2 : 14x
Riff 3 : 12x
Riff 1 : 4x
Riff 4a: 1x
Riff 4b: 1x
Riff 4a: 12x

END

  Visit MetalTabs.com for more metal tablature

bottom separator

Contact Us | Privacy Policy | Disclaimer | Legal Notice
Copyright © 2001-2014 MetalTabs.com. All Rights Reserved.