top separator

Home

Forum

What's New

Submit a Tab

FAQ

Links

Contact Us

Link to Us

MuSpy.com

MetalTabs.com logo

Bands

0-9

A

B

C

D

E

F

G

H

I

J

K

L

M

N

O

P

Q

R

S

T

U

V

W

X

Y

Z

Search

What

Where
 

Falkenbach - "Ultima Thule" Guitar Tab

Plain Text Version
More Falkenbach Tabs

Hits: 1665
Rated: 3.00 out of 5 (1 vote)
Updated: 2007-04-14 02:23:29

 

By:

sendpm.gif

email.gif

Important note
We did our best to reach Falkenbach and ask for their permission to publish this tab. Unfortunately they did not respond to our requests or we could not find a way to contact them. This tab is available online until Falkenbach tells us to take it down.


#----------------------------------PLEASE NOTE---------------------------------#
#This file is the author's own work and represents their interpretation of the #
#song. You may only use this file for private study, scholarship, or research. #
#Unless specified otherwise, this is NOT an official tab from the band members.#
#------------------------------------------------------------------------------#

  Visit MetalTabs.com for more metal tablature
  
Artist : Falkenbach
Album : En Their Medh Riki Fara...
Song : Ultima Thule

For any Thing E-mail me at Anarchit_69@hotmail.com

Intro

Riff 1 [0:01]

Guitar 1

|------------|
|------------|
|------------|
|------------|
|-2--2-3--3--|
|-0--0-1--1--| x8

Guitar 2

|---------------------------------------------|
|---------------------------------------------|
|---------------------------------------------|
|------------------6-------------------6------|
|--7-77-7-77-777-8-----7-77-7-77-777-8--------|
|---------------------------------------------| Many times under Guitar 1

End of Intro

Riff 1 [0:41]

Guitar 1

|------------------------------------------------------|
|------------------------------------------------------|
|------------------------------------------------------|
|------------------------------------------------------|
|-222---222---222---222---222---222---222---222---222--|
|-000---000---000---000---000---000---000---000---000--|

Guitar 2

|---------------------------------------------|
|---------------------------------------------|
|---------------------------------------------|
|------------------6-------------------6------|
|--7-77-7-77-777-8-----7-77-7-77-777-8--------|
|---------------------------------------------| Many times under Guitar 1

Riff 2 [0:55]

Guitar 1

|----------------|
|----------------|
|----------------|
|----------------|
|-2--10--3-10-9--|
|-0--8---5-8--7--|

Riff 3 [1:22 - 1:25]

Guitar 1

|------------------------------------------------------|
|------------------------------------------------------|
|------------------------------------------------------|
|------------------------------------------------------|
|-222---222---222---222---222---222---222---222---222--|
|-000---000---000---000---000---000---000---000---000--|

Guitar 2

|----------------|
|----------------|
|----------------|
|-9-99-9-99-10-9-|
|----------------|
|----------------|

Riff 4 [1:34]

Acoustic Guitar [1:34]

|---------------------------------------------------------------------|
|---------------------------------------------------------------------|
|------------------------------7-7------------------------------------|
|---9-7-9-10----------9-7-9-10----------9-7-9-10----------9-7-9-------|
|-7----------9-10-7-7-----------------7----------9-10-7-7-------6-7-7-|
|---------------------------------------------------------------------|

Riff 5 [1:46]

Distortion under Acoustic [1:46]

|-------------------------|
|-------------------------|
|-------------------------|
|-------------------------|
|-999-999-999-999-999-999-|
|-777-777-777-777-777-777-|

Riff 6 [2:59]

|------------|
|------------|
|------------|
|------------|
|-10--3-10-9-|
|-8---5-8--7-|


End


Tabbed by Hemmrik Féat

Anarchit_69@Hotmail.com

  Visit MetalTabs.com for more metal tablature

bottom separator

Contact Us | Privacy Policy | Disclaimer | Legal Notice
Copyright © 2001-2014 MetalTabs.com. All Rights Reserved.