top separator

Home

Forum

What's New

Submit a Tab

FAQ

Links

Contact Us

Link to Us

MuSpy.com

MetalTabs.com logo

Bands

0-9

A

B

C

D

E

F

G

H

I

J

K

L

M

N

O

P

Q

R

S

T

U

V

W

X

Y

Z

Search

What

Where
 

Voltaj - "Siberia" Guitar Tab

Plain Text Version
More Voltaj Tabs

Hits: 1483
Rated: 5.00 out of 5 (2 votes)
Updated: 2007-04-11 23:05:32

 

By:

sendpm.gif

email.gif

Important note
We did our best to reach Voltaj and ask for their permission to publish this tab. Unfortunately they did not respond to our requests or we could not find a way to contact them. This tab is available online until Voltaj tells us to take it down.


#----------------------------------PLEASE NOTE---------------------------------#
#This file is the author's own work and represents their interpretation of the #
#song. You may only use this file for private study, scholarship, or research. #
#Unless specified otherwise, this is NOT an official tab from the band members.#
#------------------------------------------------------------------------------#

  Visit MetalTabs.com for more metal tablature
  
Band:  Voltaj
Album: Pericol de moarte
Song:  Siberia

Copyright (c) ROTON 1996
Version 1.0 - 30-Mar-2007

Transcribed By: Matei
Email:          mateinegriu@yahoo.com


.  - palm mute           /  - slide up to
\  - slide down to       ~  - vibrato
h  - hammer on           b  - Bend
p  - pull off            Suffixes for bend
t  - tap                 f  - full bend    h - half bend
ph - pinched harmonic    q  - quarter bend t - tap bend
*  - see comment         ^  - Hold bend    r release bend
x  - Stuccatto           ~  - vibrato bend
,  - slight palm mute    () - ghost note, sustained note
"  - tremolo note        <> - Trill

Tuning E A D G B E

--------------------------------------------------------------------
riff1/intro/refren:                 nu sunt sigur de
				    masura asta

	    E5	|     E5    G	         E5 A G  |
----------------|------------------|------------------|------------------
----------------|------------------|------------------|------------------
----------------|------------------|------------------|------------------
----------------|------------------|------------------|------------------
------------2-2-|-----2--------2-2-|-----2------------|-----2------------
------------2-2-|-----2--------2-2-|-----2--------2-2-|-----2--------2-2-
0--3--2--1--0-0-|-000-0--003---0-0-|-000-0--553---0-0-|-000-0--003---0-0-


riff2/bridge
E5         B5  C5
--------------|-------------------------------------
--------------|-------------------------------------
--------------|-------------------------------------
--------------|-------------------------------------
2----2-2-2-4--|5------------------------------------
2----2-2-2-2--|3------------------------------------
0----0-0-0----|-------------------------------------

riff3/strofa1
---------------|--------------|---------------------
---------------|--------------|---------------------
---------------|--------------|---------------------
2~------4~-----|5~------------|---------------------
---------------|------3-2-2h3-|---------------------
---------------|--------------|---------------------

riff4/strofa2 - la fel ca strofa 1 dar mai suparat:
--------------------|-------------------|
--------------------|-------------------|
--------------------|-------------------|
2~~-----2-4~~----- 4|5~~------5---------|
--------------------|-----------3-2-2h3-|
---0-0-0-----0-0-0--|---0-0-0-----------|

riff4 alternativ:                 +---------+
				  |cu scartz|
--------------------|-----------------------|
--------------------|-----------------------|
--------------------|-----------------------|
2~~-----2-4~~----- 4|5~~------5---2---------|
--------------------|-----------3---3p2-3~~~|
---0-0-0-----0-0-0--|---0-0-0---------------|

solo:
riff5/bar1/fundal pt splo:
E5   G5       F#5  D5    E5   C5    D5   B5
-------------|----------|----------|--------------
-------------|----------|----------|--------------
-------------|----------|----------|--------------
-------------|----------|----------|--------------
777--101010--|999--555--|777--333--|555--222------
-------------|----------|----------|--------------

bar2
-------------|----------|----------|--------------
-------------|----------|----------|--------------
-------------|----------|----------|--------------
-------------|----------|----------|14b16-14~~~---
7~~--10~~~---|9~~--5~~--|3~~--7~~--|--------------
-------------|----------|----------|--------------

bar2:
chitara1:

-------------|----------|----------|--------------
-------------|----------|----------|15b17-15~~~---
11b12-11~~~--|12b14-12~~|14b16-14~-|~~------------
-------------|----------|----------|--------------
-------------|----------|----------|--------------
-------------|----------|----------|--------------
chitara2: ????????????????????

bar3:
chitara1
						   1 masura in plus:
+---------------idem bar2----------+               C5
-------------|----------|----------|--------------|------------------
-------------|----------|----------|15b17-15b17---|-trecere
11b12-11~~~--|12b14-12~~|14b16-14~-|~~------------|???
-------------|----------|----------|--------------|???
-------------|----------|----------|--------------|???
-------------|----------|----------|--------------|-------------------

Intra toba, intra basul

chitara:
intro: riff1 x 2

riff2 x 2

incalzire: riff3 x 1

strofa1:
riff3 x 2
ea sta singura si trista ..

strofa2:
riff4 x 2
numai ea, ea te vrea ..

bridge:
riff2 x 2
spune-mi cine e ea?

strofa3:
riff3 x 2
ea e rea sau este buna ..

strofa2

bridge

refren:
riff1
siberia, siberia...

riff5+solo

bridge

strofa2

refren

  Visit MetalTabs.com for more metal tablature

bottom separator

Contact Us | Privacy Policy | Disclaimer | Legal Notice
Copyright © 2001-2014 MetalTabs.com. All Rights Reserved.