top separator

Home

Forum

What's New

Submit a Tab

FAQ

Links

Contact Us

Link to Us

MetalTabs.com logo

Bands

0-9

A

B

C

D

E

F

G

H

I

J

K

L

M

N

O

P

Q

R

S

T

U

V

W

X

Y

Z

Search

What

Where
 

The Haunted - "No Compromise" Guitar Tab

Plain Text Version
More The Haunted Tabs

Hits: 4210
Rated: 3.75 out of 5 (4 votes)
Updated: 2007-04-11 23:00:53

 

By:

sendpm.gif

email.gif

Important note
This tab is available online because we obtained explicit permission from The Haunted or their label.


#----------------------------------PLEASE NOTE---------------------------------#
#This file is the author's own work and represents their interpretation of the #
#song. You may only use this file for private study, scholarship, or research. #
#Unless specified otherwise, this is NOT an official tab from the band members.#
#------------------------------------------------------------------------------#

  Visit MetalTabs.com for more metal tablature
  
Band: The Haunted
Album: rEVOLVEr
Song:  No Compromise

Copyright (c)  (Century Media) (2004)
version 1.0 - 23/01/2007

Transcribed by: Viktor Bertilsson
Email: v.lago83@hotmail.com


.  - palm mute          /  - slide up to
\  - slide down to      ~  - vibrato
h  - hammer on          b  - bend
p  - pull off           Suffixes for bend
t  - tap                f  - full bend    h - half bend
ph - pinched harmonic   q  - quarter bend t - tap bend
*  - see comment        ^  - Hold bend    r - release bend
x  - Stuccato           ~  - vibrato bend
,  - slight palm mute   () - ghost note, sustained note
"  - tremolo note       <> - Trill


Tuning: One Whole Step Down, D,G,C,F,A,D


INTRO
|----------|
|----------|
|10/7/9----|
|----------|
|-8/5/7-8~-|
|-------6~-|



MAIN
|--------------------------------------------------|
|------------------------------121212111111151515--|
|-----121212111111101010-9\7/9---------------------|
|------------------------------9-9-9-8-8-8-121212--|
|-222-1010109-9-9-8-8-8--7\5/7---------------------|
|-000----------------------------------------------|



VERSE
|-------------------------------------------------------------------------|
|-------------------------------------------------------------------------|
|-------------------------------------------------------------------------|
|-------------------------------------------------------------------------|
|-1p0-------7/8-------1p0-------5/4-------1p0-------7/8-----------222222--|
|-1p0-00000-5/6-00000-1p0-00000-3/2-00000-1p0-00000-5/6-00000-3p0-000000--|
                                                                  ......


PRE CHORUS
|--------------------------------------|-----|
|--------------------------------------|-----|
|--------------------------------------|-----|
|--------------------------------------|-----|
|--------------------------------------|-----|
|-2222333355556666-2p3333555566666666--|-----|



CHORUS
|-------------------------------------------------------|
|-------------------------------------------------------|
|----------------------------------1010-7-9-------------|
|-------------------------------------------------------|
|-9-8-7------2---------------9-8-7-8-8--5-7-------------|
|-7-6-5-0-3~-0-000-000-000-007-6-5----------0000000000--|
        .      ... ... ... ..               ..........


BREAK
|-----------|--------------------------------|---------|----|
|-----------|--------------------------------|---------|----|
|-----------|--------------------------------|---------|----|
|-----------|--------------------------------|---------|----|
|-----------|-14-----------------------------|---------|-8--|
|-000000000-|---13-0-10-12-0-13-12-0-10-12-0-|-7-8-7-0-|-6--|
  .........


|----------------------------|
|----------------------------|
|----------------------------|
|----------------------------|
|-4--5--7--8--4/5--7--8--8---|
|-2--3--5--6--2/3--5--6--6---|



VERSE II
|-------------------------------------------------------|
|-------------------------------------------------------|
|-------------------------------------------------------|
|-------------------------------------------------------|
|-1p0----7/8----1p0----5/4----1p0----7/8--------222222--|
|-1p0-00-5/6-00-1p0-00-3/2-00-1p0-00-5/6-00-3p0-000000--|
      ..     ..     ..     ..     ..     ..     ......

  Visit MetalTabs.com for more metal tablature

bottom separator

Contact Us | Privacy Policy | Disclaimer | Legal Notice
Copyright © 2001-2014 MetalTabs.com. All Rights Reserved.