top separator

Home

Forum

What's New

Submit a Tab

FAQ

Links

Contact Us

Link to Us

MuSpy.com

MetalTabs.com logo

Bands

0-9

A

B

C

D

E

F

G

H

I

J

K

L

M

N

O

P

Q

R

S

T

U

V

W

X

Y

Z

Search

What

Where
 

Watain - "Walls of Life Ruptured" Bass Tab

Plain Text Version
More Watain Tabs

Hits: 2256
Rated: 5.00 out of 5 (7 votes)
Updated: 2007-04-11 22:58:09

 

By:

Wolfsherz

sendpm.gif

email.gif

Important note
We did our best to reach Watain and ask for their permission to publish this tab. Unfortunately they did not respond to our requests or we could not find a way to contact them. This tab is available online until Watain tells us to take it down.


#----------------------------------PLEASE NOTE---------------------------------#
#This file is the author's own work and represents their interpretation of the #
#song. You may only use this file for private study, scholarship, or research. #
#Unless specified otherwise, this is NOT an official tab from the band members.#
#------------------------------------------------------------------------------#

  Visit MetalTabs.com for more metal tablature
  
Band:  Watain
Album: Rabid Death's Curse
Song:  Walls of Life Ruptured

Copyright (c)  Drakkar 2000

Transcribed By: Wolfsherz/Jens Cautereels
Email:          cautereels.jens@gmail.com

Tuning: EADG

G ---------------------------------------------------------------
D ---------------------------------------------------------------
A 77777777666666667777777733333333-777777776666666633333333-2-3-6
E --------------------------------------------------------------- x2

G ---------------------------------------------------------------
D ---------------------------------------------------------------
A 7-7-7-6--7-7-7-3--7-7-7-6-6-6-3-3-3-22-3-6---------------------
E ---------------------------------------------------------------

G ---------------------------------------------------------------
D ---------------------------------------------------------------
A 77777777666666667777777733333333-777777776666666633333333-2-3-6
E ---------------------------------------------------------------

G ---------------------------------------------------------------
D ---------------------------------------------------------------
A --7--8--7--3---7--8--7--3---7--8--7--3---7--8--7--3------------
E 00-00-00-00--00-00-00-00--00-00-00-00--00-00-00----------------

G ---------------------------------------------------------------
D ---------------------------------------------------------------
A --7--8--7--3---7--8--7--3---7--8--7--3---7--8--7--3------------
E 00-00-00-00--00-00-00-00--00-00-00-00--00-00-00-00-------------

G ---------------------------------------------------------------
D ---------------------------------------------------------------
A 2------------2--3--7--6----------------------------------------
E ---------------------------------------------------------------

G ---------------------------------------------------------------
D ---------------------------------------------------------------
A 22222222-33333333-77777777-66666666----------------------------
E --------------------------------------------------------------- x8

G ---------------------------------------------------------------
D ---------------------------------------------------------------
A --7--8--7--3---7--8--7--3---7--8--7--3---7--8--7--3------------
E 00-00-00-00--00-00-00-00--00-00-00-00--00-00-00-00-------------

G ---------------------------------------------------------------
D ---------------------------------------------------------------
A 0-0000-0000-0000-000-1-1111-111-3-333-1-3-1--------------------
E --------------------------------------------------------------- x4

G ---------------------------------------------------------------
D ---------------------------------------------------------------
A -------------------------------------999999--------------------
E 55555555-777777888777-3333-2222-0000--------------------------- x8
  "As it opens for me"          Hard to hear part, but correct tab

G ---------------------------------------------------------------
D ---------------------------------------------------------------
A 77777777666666667777777733333333-777777776666666633333333-2-3-6
E --------------------------------------------------------------- x4

G ---------------------------------------------------------------
D ---------------------------------------------------------------
A ---------------------------------------------------------------
E 0--------0-1-4--1-5--1--4---8888778888-------------------------

G ---------------------------------------------------------------
D ---------------------------------------------------------------
A ---------------------------------------------------------------
E 0000-77888877888877888877-0000-77888877888877888877------------

G ---------------------------------------------------------------
D ---------------------------------------------------------------
A ---------------------------------------------------------------
E 0000-88999988999988999988-0000-88999988999988999988------------

G ---------------------------------------------------------------
D ---------------------------------------------------------------
A ---------------------------------------------------------------
E 0000-77888877888877888877-0000-77888877888877888877------------

G ---------------------------------------------------------------
D ---------------------------------------------------------------
A ---------------------------------------------------------------
E 0000-88999988999988999988-0000-88999988999988999988------------

G ---------------------------------------------------------------
D ---------------------------------------------------------------
A -------------------------------------999999--------------------
E 55555555-777777888777-3333-2222-0000--------------------------- x8

G ---------------------------------------------------------------
D ---------------------------------------------------------------
A --7--8--7--3---7--8--7--3---7--8--7--3---7--8--7--3------------
E 00-00-00-00--00-00-00-00--00-00-00-00--00-00-00-00-------------

  Visit MetalTabs.com for more metal tablature

bottom separator

Contact Us | Privacy Policy | Disclaimer | Legal Notice
Copyright © 2001-2014 MetalTabs.com. All Rights Reserved.