top separator

Home

Forum

What's New

Submit a Tab

FAQ

Links

Contact Us

Link to Us

MuSpy.com

MetalTabs.com logo

Bands

0-9

A

B

C

D

E

F

G

H

I

J

K

L

M

N

O

P

Q

R

S

T

U

V

W

X

Y

Z

Search

What

Where
 

Wolfchant - "A Tale From The Old Fields" Guitar Tab

Plain Text Version
More Wolfchant Tabs

Hits: 5107
Rated: 4.57 out of 5 (7 votes)
Updated: 2007-04-11 22:47:34

 

By:

sendpm.gif

email.gif

Important note
This tab is available online because we obtained explicit permission from Wolfchant or their label.


#----------------------------------PLEASE NOTE---------------------------------#
#This file is the author's own work and represents their interpretation of the #
#song. You may only use this file for private study, scholarship, or research. #
#Unless specified otherwise, this is NOT an official tab from the band members.#
#------------------------------------------------------------------------------#

  Visit MetalTabs.com for more metal tablature
  
Band:  Wolfchant
Album: Bloody tales of disgraced lands
Song:  A tale from the old fields

Copyright (c)  CCP Records (SPV)
Version 1.0

Transcribed By: Fimbulthul
Email:          fimbulthul@gmx.at
________________________________________

.  - palm mute           /  - slide up to
\  - slide down to       ~  - vibrato
h  - hammer on           b  - Bend
p  - pull off            Suffixes for bend
t  - tap                 f  - full bend    h - half bend
ph - pinched harmonic    q  - quarter bend t - tap bend
*  - see comment         ^  - Hold bend    r release bend
x  - Stuccatto           ~  - vibrato bend
,  - slight palm mute    () - ghost note, sustained note
"  - tremolo note        <> - Trill

Tuning E A D G B E

Riff 1

|--------------------------------------------------------------
|--------------------------------------------------------------
|--12p10h12-10-8-3-5---12p10h12-14-15-10-12---12p10h12-10-8-3-5
|10------------------10---------------------10-----------------
|--------------------------------------------------------------
|--------------------------------------------------------------


|---------------|
|-------8-------|
|8-8-10---8-3-5~|
|---------------|
|---------------|
|---------------|

Riff 2

|--------------------------------------------------|
|--15-1616-15-13--11-8-11-8-13---------------------|
|-------------------------------15-12--10-8-7-5-3-5|
|--------------------------------------------------|
|--------------------------------------------------|
|--------------------------------------------------|



Structure

Flute intro   2x
Riff 1        3x
Riff 2        2x
Riff 1        3x
Riff 1 (slow) 1x

That's it. I know it's not 100% correct, so all corrections are welcome.

  Visit MetalTabs.com for more metal tablature

bottom separator

Contact Us | Privacy Policy | Disclaimer | Legal Notice
Copyright © 2001-2014 MetalTabs.com. All Rights Reserved.