top separator

Home

Forum

What's New

Submit a Tab

FAQ

Links

Contact Us

Link to Us

MetalTabs.com logo

Bands

0-9

A

B

C

D

E

F

G

H

I

J

K

L

M

N

O

P

Q

R

S

T

U

V

W

X

Y

Z

Search

What

Where
 

Tierra Santa - "La Canción del Pirata (Part I)" Guitar Tab

Plain Text Version
More Tierra Santa Tabs

Hits: 2921
Updated: 2007-04-11 22:42:56

 

By:

naat

sendpm.gif

email.gif

Important note
We did our best to reach Tierra Santa and ask for their permission to publish this tab. Unfortunately they did not respond to our requests or we could not find a way to contact them. This tab is available online until Tierra Santa tells us to take it down.


#----------------------------------PLEASE NOTE---------------------------------#
#This file is the author's own work and represents their interpretation of the #
#song. You may only use this file for private study, scholarship, or research. #
#Unless specified otherwise, this is NOT an official tab from the band members.#
#------------------------------------------------------------------------------#

  Visit MetalTabs.com for more metal tablature
  
-------------------------------------------------------------------------------
 Title:    | La Canción Del Pirata (Parte I)
-------------------------------------------------------------------------------
 Artist:   | Tierra Santa
 Album:    | Tierras De Leyenda
 Author:   | Tierra Santa
 Copyright:| 2000 LOCOMOTIVE MUSIC
 Tab:      | Nestor Arroliga Tellez [naat]
 E-mail:   | maiden_nat@yahoo.com
-------------------------------------------------------------------------------


[Intro]: 3x

Guitar 1:
e|---------------------------------|
B|---------------------------------|
G|---------------------------------|
D|---------------------------------|
A|-0-0-0-0-0-0-0-0-0-0-0-0-0-0-0-0-|
E|---------------------------------|
pm ...............................

[Riff A]: 2x

Guitar 1:
e|---------------------------------|---------------------------------|
B|---------------------------------|---------------------------------|
G|---------------------------------|---------------------------------|
D|---------------------------------|---------------------------------|
A|-0-0-0-0-0-0-0-0-0-0-0-0-0-0-0-0-|-0-0-0-0-0-0-0-0-0-0-0-0-0-0-0-0-|
E|---------------------------------|---------------------------------|
pm ...............................   ...............................

Guitar 2:
e|---------------------------------|---------------------------------|
B|---------------------------------|---------------------------------|
G|------9-7----7~-------9-7----7~--|------9-7---------7-9~-----------|
D|-7h10-----10-----7h10-----10-----|-7h10-----10-9-10----------------|
A|---------------------------------|---------------------------------|
E|---------------------------------|---------------------------------|

Guitar 1:
e|---------------------------------|---------------------------------|
B|---------------------------------|---------------------------------|
G|---------------------------------|---------------------------------|
D|---------------------------------|---------------------------------|
A|-0-0-0-0-0-0-0-0-0-0-0-0-0-0-0-0-|-------------------------0-0-0-0-|
E|---------------------------------|-1-1-1-1-1-1-3-3-3-3-3-3---------|
pm ...............................   ...............................

Guitar 2:
e|---------------------------------|---------------------------------|
B|---------------------------------|---------------------------------|
G|------9-7----7~-------9-7----7~--|--------7------------------------|
D|-7h10-----10-----7h10-----10-----|-7h9-10---10-9-10-9-7~-----------|
A|---------------------------------|---------------------------------|
E|---------------------------------|---------------------------------|


[Verse Riff 1]:

Both Guitars:
e|------|-------|-------|-------|-------|-------|-------|
B|------|-------|-------|-------|-------|-------|-------|
G|-2----|-(2)---|-(2)---|-------|-------|-5-----|-------|
D|-2----|-(2)---|-(2)---|-3-----|-5-----|-5-----|-5-----|
A|-0----|-(0)---|-(0)---|-3-----|-5-----|-3-----|-5-----|
E|------|-------|-------|-1-----|-3-----|-------|-3-----|

Both Guitars:                    3x|
e|---------------------------------|-------|-------|-------|-------|
B|---------------------------------|-------|-------|-------|-------|
G|---------------------------------|-------|-------|-5-----|-------|
D|---------------------------------|-3-----|-5-----|-5-----|-5-----|
A|-0-0-0-0-0-0-0-0-0-0-0-0-0-0-0-0-|-3-----|-5-----|-3-----|-5-----|
E|---------------------------------|-1-----|-3-----|-------|-3-----|
pm ...............................


[Riff A]

[Verse Riff 1]

[Riff A]


[Verse Riff 2]:

Both Guitars:
e|-------|-------|-------|-------|-------|-------|-------|-------|
B|-------|-------|-------|-------|-------|-------|-------|-------|
G|-------|-------|-5-----|-------|-2-----|-------|-------|-------|
D|-3-----|-5-----|-5-----|-5-----|-2-----|-5-----|-3-----|-5-----|
A|-3-----|-5-----|-3-----|-5-----|-0-----|-5-----|-3-----|-5-----|
E|-1-----|-3-----|-------|-3-----|-------|-3-----|-1-----|-3-----|


[Bridge]: 2x

Both Guitars:
e|-------|-------|-------|------------|
B|-------|-------|-------|------------|
G|-7-----|-5-----|-3-----|-2----3--5--|
D|-7-----|-5-----|-3-----|-2----3--5--|
A|-5-----|-3-----|-1-----|-0----1--3--|
E|-------|-------|-------|------------|


[Chorus]: 2x

Both Guitars:
e|-----------------------|-----------------------|-----------------------|
B|-----------------------|-----------------------|-----------------------|
G|-----------------------|-----------------------|-----------------------|
D|-----------------------|-----------------------|-----------------------|
A|-5-5-5-5-5-5-5-5-5-5-5-|-3-3-3-3-3-3-3-3-3-3-3-|-1-1-1-1-1-1-1-1-1-1-1-|
E|-----------------------|-----------------------|-----------------------|
pm .....................   .....................   .....................

Both Guitars:
 |1.                       |2.
e|-------------------------|-----------------------------------|
B|-------------------------|-----------------------------------|
G|-------------------------|-----------------------------------|
D|-------------------------|-----------------------------------|
A|-0-0-0-0-0-0-1-1-1-3-3-3-|-0-0-0-0-0-0-0-0-0-0-0-0-0-0-0-0-0-|
E|-------------------------|-----------------------------------|
pm .......................   .................................


[Interlude]: 2x

Guitar 1:
e|--------------------------|--------------------------|
B|--------------------------|--------------------8---8-|
G|-7-7-7-9-7-9-10p9-7-9-7---|-7-7-7-9-7-9-10p9-10--10--|
D|-----------------------10-|--------------------------|
A|--------------------------|--------------------------|
E|--------------------------|--------------------------|

Guitar 2:
e|-------------------------|-------------------------|
B|-------------------------|-------------------------|
G|-------------------------|-------------------------|
D|-------------------------|-------------------------|
A|-5-5-5-5-5-5-5-5-5-5-5-5-|-5-5-5-5-5-5-5-5-5-5-5-5-|
E|-------------------------|-------------------------|
pm .......................   .......................

Guitar 1:
e|-------------------------------|------------------------------|
B|-10-10-10-11-10p8-10-8----8----|---------------8------------8-|
G|-----------------------10---10-|-9-10p9-7-9-10--10p9-7-9-10---|
D|-------------------------------|------------------------------|
A|-------------------------------|------------------------------|
E|-------------------------------|------------------------------|

Guitar 2:
e|-------------------------|-------------------------|
B|-------------------------|-------------------------|
G|-------------------------|-------------------------|
D|-------------------------|-------------------------|
A|-1-1-1-1-1-1-1-1-1-1-1-1-|-3-3-3-3-3-3-0-0-0-0-0-0-|
E|-------------------------|-------------------------|
pm .......................   .......................


[Solo]:

Guitar 1:
e|------|-------------|----------|--------------------------------------------|
B|------|----------8b-|-8b--8br--|----------------------------------10--13p10-|
G|-7~---|-7-9p7-10----|-/--------|-----------------10---10-12-10h12-----------|
D|------|-------------|-/--------|-10--10h12-10-12---12-----------------------|
A|------|-------------|-/--------|---12---------------------------------------|
E|------|-------------|----------|--------------------------------------------|

Guitar 1:
e|-------------------------|---------------------|---------------|------------|
B|----10-13p10-13-13b--13b-|-13p10-13~--10p8-10~-|---------------|------------|
G|-12----------------------|---------------------|-10---9-10-9~--|------------|
D|-------------------------|---------------------|---------------|-12-10-12~--|
A|-------------------------|---------------------|---------------|------------|
E|-------------------------|---------------------|---------------|------------|

Guitar 1:                                            tr
e|-----------------------------|-------------|-------------------|
B|-10p8------------------------|-------------|-10-11-10(11)-10~--|
G|-----10p9-7---------10p9-7---|-----9-10-12-|-------------------|
D|------------10p8h10-------10-|-12----------|-------------------|
A|-----------------------------|-------------|-------------------|
E|-----------------------------|-------------|-------------------|


[Rhythm Under Solo]:

Guitar 2:
e|-------------------------|-------------------------|
B|-------------------------|-------------------------|
G|-------------------------|-------------------------|
D|-------------------------|-------------------------|
A|-5-5-5-5-5-5-5-5-5-5-5-5-|-5-5-5-5-5-5-5-5-5-5-5-5-|
E|-------------------------|-------------------------|
pm .......................   .......................

Guitar 2:
e|-------------------------|-------------------------|
B|-------------------------|-------------------------|
G|-------------------------|-------------------------|
D|-------------------------|-------------------------|
A|-1-1-1-1-1-1-1-1-1-1-1-1-|-3-3-3-3-3-3-0-0-0-0-0-0-|
E|-------------------------|-------------------------|
pm .......................   .......................

repeat above riffs once and then...

Guitar 2:
e|-------------------------|-------------------------|
B|-------------------------|-------------------------|
G|-------------------------|-------------------------|
D|-------------------------|-------------------------|
A|-1-1-1-1-1-1-1-1-1-1-1-1-|-3-3-3-3-3-3-3-3-3-3-3-3-|
E|-------------------------|-------------------------|
pm .......................   .......................

Guitar 2:
e|-------------------------|-------------------------|
B|-------------------------|-------------------------|
G|-------------------------|-------------------------|
D|-------------------------|-------------------------|
A|-5-5-5-5-5-5-5-5-5-5-5-5-|-5-5-5-5-5-5-5-5-5-5-5-5-|
E|-------------------------|-------------------------|
pm .......................   .......................

Guitar 2:
e|-------------------------|-------------------------|
B|-------------------------|-------------------------|
G|-------------------------|-------------------------|
D|-------------------------|-------------------------|
A|-1-1-1-1-1-1-1-1-1-1-1-1-|-3-3-3-3-3-3-3-3-3-3-3-3-|
E|-------------------------|-------------------------|
pm .......................   .......................

Guitar 2:
e|-------------------------|-------------------------|
B|-------------------------|-------------------------|
G|-------------------------|-------------------------|
D|-------------------------|-------------------------|
A|-0-0-0-0-0-0-0-0-0-0-0-0-|-0-0-0-0-0-0-0-0-0-0-0-0-|
E|-------------------------|-------------------------|
pm .......................   .......................


[Verse Riff 3]: 2x

Both Guitars:
e|-------|-------|-------|-------|
B|-------|-------|-------|-------|
G|-7-----|-3-----|-5-----|-2-----|
D|-7-----|-3-----|-5-----|-2-----|
A|-5-----|-1-----|-3-----|-0-----|
E|-------|-------|-------|-------|


[Bridge]

[Chorus]


[Outro]:

Guitar 1:
e|---------------------------------|---------------------------------|
B|---------------------------------|---------------------------------|
G|---------------------------------|---------------------------------|
D|---------------------------------|---------------------------------|
A|-5-5-5-5-5-5-5-5-5-5-5-5-5-5-5-5-|-5-5-5-5-5-5-5-5-5-5-5-5-5-5-5-5-|
E|---------------------------------|---------------------------------|
pm ...............................   ...............................

Guitar 2:
e|-----------------------------------|-------------------------------|
B|------10-8----8~-------10-8----8~--|------10-8---------8-10~-------|
G|-7h10------10-----7h10------10-----|-7h10------10-9-10-------------|
D|-----------------------------------|-------------------------------|
A|-----------------------------------|-------------------------------|
E|-----------------------------------|-------------------------------|

Guitar 1:
e|---------------------------------|---------------------------------|
B|---------------------------------|---------------------------------|
G|---------------------------------|---------------------------------|
D|---------------------------------|---------------------------------|
A|-5-5-5-5-5-5-5-5-5-5-5-5-5-5-5-5-|-1-1-1-1-1-1-3-3-3-3-3-3-5-5-5-5-|
E|---------------------------------|---------------------------------|
pm ...............................   ...............................

Guitar 2:
e|-----------------------------------|-------------------------------|
B|------10-8----8~-------10-8----8~--|--------8----------------------|
G|-7h10------10-----7h10------10-----|-7h9-10---10-9-10-9-7~---------|
D|-----------------------------------|-------------------------------|
A|-----------------------------------|-------------------------------|
E|-----------------------------------|-------------------------------|

Guitar 1:
e|-----------|-----------|------------|
B|-----------|-----------|------------|
G|--------3--|--------5--|--------7---|
D|--------3--|--------5--|--------7---|
A|--------1--|--------3--|--------5---|
E|-----------|-----------|------------|

Guitar 2:
e|-----------|-----------|------------|
B|-----------|-8---------|------------|
G|-7--9--10--|----10--9--|-10--9--7~--|
D|-----------|-----------|------------|
A|-----------|-----------|------------|
E|-----------|-----------|------------|

-------------------------------------------------------------------------------
Tablature Explanation
-------------------------------------------------------------------------------
 h   : hammer on    | b   : bend
 p   : pull off     | br  : bend - release
 /   : slide up     | t   : tapping
 \   : slide down   | tr  : trill
 \/  : dive         | x   : muted note
 ~   : vibrato      | ()  : ghost note
 ~~~ : wide vibrato | <>  : harmonics
 pm..: palm mute    | /// : tremolo picking
-------------------------------------------------------------------------------

  Visit MetalTabs.com for more metal tablature

bottom separator

Contact Us | Privacy Policy | Disclaimer | Legal Notice
Copyright © 2001-2014 MetalTabs.com. All Rights Reserved.