top separator

Home

Forum

What's New

Submit a Tab

FAQ

Links

Contact Us

Link to Us

MetalTabs.com logo

Bands

0-9

A

B

C

D

E

F

G

H

I

J

K

L

M

N

O

P

Q

R

S

T

U

V

W

X

Y

Z

Search

What

Where
 

Convulse - "Blasphemous Verses" Guitar Tab

Plain Text Version
More Convulse Tabs

Hits: 2390
Updated: 2007-04-11 22:42:51

 

By:

epitaph

sendpm.gif

email.gif

Important note
We did our best to reach Convulse and ask for their permission to publish this tab. Unfortunately they did not respond to our requests or we could not find a way to contact them. This tab is available online until Convulse tells us to take it down.


#----------------------------------PLEASE NOTE---------------------------------#
#This file is the author's own work and represents their interpretation of the #
#song. You may only use this file for private study, scholarship, or research. #
#Unless specified otherwise, this is NOT an official tab from the band members.#
#------------------------------------------------------------------------------#

  Visit MetalTabs.com for more metal tablature
  
Band: Convulse
Album: World Without God
Song: Blasphemous Verses

Copyright (c) Thrash Records 1992
Version 1.0 - 6th of April, 2007

Transcribed By: Lassi Nurminen (epitaph)
Email: Gaborik10@hotmail.com / Gaborik@welho.com

If you see any incorrections in this tab, get in touch with me.
I dont have much knowledge when it comes to guitar chords & harmonizing, etc.
as I am a bass player..

Tuning -
C# Standard /
C# F# B E G# C#

0:06 - Repeat four times
|--------------------|
|--------------------|
|--------------------|
|--------------------|
|-2--2-3--3-6--6-5-3-|
|-0--0-1--1-4--4-3-1-|

|----------------------|
|----------------------|
|----------------------|
|----------------------|
|-2--2-3--3-6--6-2h3-3-|
|-0--0-1--1-4--4-----1-|

0:30
|-----------------|
|-----------------|
|-----------------| Left
|-----------------| Guitar
|-2---------------|
|-0---------------|

|-----------------|
|-----------------|
|-----------------| Right
|-----------------| Guitar
|---2-3-2---2---1-|
|-0-------3---2---|

0:37
|-----------------||-----------------|
|-----------------||-----------------|
|-----------------||-----------------| Left
|-----------------||-----------------| Guitar
|-5---------------||-2---------------|
|-3---------------||-0---------------|

|-----------------||-----------------|
|-----------------||-----------------|
|-----------------||-----------------| Right
|-----------------||-----------------| Guitar
|---5-6-5---5---4-||---5-6-5---5---4-|
|-0-------6---5---||-0-------6---5---|

0:44 - Repeat Twice
|-----------------|
|-----------------|
|-----------------|
|-----------------|
|---2-3-2---2---1-|
|-0-------3---2---|

0:51 - Repeat twice
|-----------------|
|-----------------|
|-----------------| Left
|-----------------| Guitar
|---2-3-2---2---1-|
|-0-------3---2---|

|-----------------|
|-----------------|
|-----------------| Right
|-----------------| Guitar
|---5-6-5---5---4-|
|-0-------6---5---|

0:58 - Repeat twice
|---------------------------------|
|---------------------------------|
|---------------------------------|
|---------------------------------|
|----222233332222----2222----1111-|
|-00-------------3333----2222-----|

1:04 - Repeat twice
|---------------------------------|
|---------------------------------|
|---------------------------------| Left
|---------------------------------| Guitar
|----222233332222----2222----1111-|
|-00-------------3333----2222-----|

|---------------------------------|
|---------------------------------|
|---------------------------------| Right
|---------------------------------| Guitar
|----555566665555----5555----4444-|
|-00-------------6666----5555-----|

1:12 - Repeat four times
|----------------------------------|
|----------------------------------| Leave the first
|----------------------------------| four notes off when you
|-----33332222---------------------| play the riff for the first time
|-------------33332222-------------|
|-0000----------------333322222222-|

|----------------------------------|
|----------------------------------|
|----------------------------------|
|-----33332222------------66666666-|
|-------------333322225555---------|
|-0000-----------------------------|

1:30 - Repeat four times
|----------------------------|
|----------------------------|
|----------------------------|
|----------------------------|
|-2-2--2-6-6--6-5-5--5-2p3-3-|
|-0-0--0-4-4--4-3-3--3-----1-|

|-----------------------------------|
|-----------------------------------|
|-----------------------------------|
|-----------------------------------|
|-2-2--2-6-6--6-7777-6666-----------|
|-0-0--0-4-4--4-----------8888-7777-|

1:50 - Repeat six times
|----------------------|
|----------------------|
|----------------------|
|-------5-4--------4-3-|
|-2-3-5-3-2--2-3-5-2-1-|
|-0-1-3------0-1-3-----|

|-----------------------------------------|
|-----------------------------------------|
|-----------------------------------------| Only the left guitar plays
|-----------------------------------------| this part for the first two times
|-----------------------------------------|
|-0000-0000-4444-4444-1111-1111-3333-3333-|

2:22 - Repeat twice
|-----------------------------|
|-----------------------------|
|-----------------------------| Left
|-----------------------------| Guitar
|-2-------------------6---3-3-|
|-0-------------------4---1-1-|

|-----------------------------|
|-----------------------------|
|-----------------------------| Right
|-------10-9------------------| Guitar
|---7-8-------7h8p7h8-6---3-3-|
|-0-----------------------1-1-|

|-----------------------------|
|-----------------------------|
|-----------------------------| Left
|---------------------8-------| Guitar
|-2-------------------6---3-3-|
|-0-----------------------1-1-|

|-----------------------------|
|-----------------------------|
|---------------------8-------| Right
|-------10-9------------------| Guitar
|---7-8-------7h8p7h8-----3-3-|
|-0-----------------------1-1-|

2:43 - Repeat twice
|-----------------------------|
|-----------------------------|
|-----------------------------| Left
|-------10-9------------------| Guitar
|---7-8-------7h8p7h8-6---3-3-|
|-0-----------------------1-1-|

|------------------------------------|
|------------------------------------| Right
|------------------------------------| Guitar
|---------12-10----------------------|
|---10-11-------11h12p11h12-10*--3-3-| *Play this note an octave
|-0------------------------------1-1-| higher for the second time

3:02
|---------------|
|---------------|
|---------------|
|---------------|
|-3-3--3-3--3-3-|
|-1-1--1-1--1-1-|

3:04 - Repeat four times
|----------------------------------|
|----------------------------------|
|----------------------------------|
|-----33332222---------------------|
|-------------33332222-------------|
|-0000----------------333322222222-|

|----------------------------------|
|----------------------------------|
|----------------------------------|
|-----33332222------------66666666-|
|-------------333322225555---------|
|-0000-----------------------------|

3:23 - Repeat four times
|----------------------------|
|----------------------------|
|----------------------------|
|----------------------------|
|-2-2--2-6-6--6-5-5--5-2h3-3-|
|-0-0--0-4-4--4-3-3--3-----1-|

|--------------------------------|
|--------------------------------|
|--------------------------------|
|--------------------------------|
|-2-2--2-6-6--6-77776666---------|
|-0-0--0-4-4--4---------88887777-|

3:43
|---|
|---|
|---|
|---|
|-2-|
|-0-|

3:48
|--------------------|
|--------------------|
|--------------------|
|--------------------|
|-2--2-3--3-6--6-5-3-|
|-0--0-1--1-4--4-3-1-|

|----------------------|
|----------------------|
|----------------------|
|----------------------|
|-2--2-3--3-6--6-2h3-3-|
|-0--0-1--1-4--4-----1-|

4:12
|------------------------|
|------------------------|
|------------------------|
|------------------------|
|----2--3--2-----2-----1-|
|-0-----------3-----2----|

And end the song like you wish.. Cheers for watching!

  Visit MetalTabs.com for more metal tablature

bottom separator

Contact Us | Privacy Policy | Disclaimer | Legal Notice
Copyright © 2001-2014 MetalTabs.com. All Rights Reserved.