top separator

Home

Forum

What's New

Submit a Tab

FAQ

Links

Contact Us

Link to Us

MuSpy.com

MetalTabs.com logo

Bands

0-9

A

B

C

D

E

F

G

H

I

J

K

L

M

N

O

P

Q

R

S

T

U

V

W

X

Y

Z

Search

What

Where
 

Gehenna - "She Who Loves The Flames" Guitar Tab

Plain Text Version
More Gehenna Tabs

Hits: 1530
Updated: 2007-04-11 22:20:50

 

By:

sendpm.gif

email.gif

Important note
This tab is available online because we obtained explicit permission from Gehenna or their label.


#----------------------------------PLEASE NOTE---------------------------------#
#This file is the author's own work and represents their interpretation of the #
#song. You may only use this file for private study, scholarship, or research. #
#Unless specified otherwise, this is NOT an official tab from the band members.#
#------------------------------------------------------------------------------#

  Visit MetalTabs.com for more metal tablature
  
band: Gehenna
album: Malice
song: she who loves the flames
(c) Cacophonous
by: morkvisioner (wisioner@luukku.com)

intro
1||----------------------------------------------------------------|
2||----------------------------------------------------------------|
3||-----------2--54--3---2---54------------------------------------|
4||----------2-----5----2------5-1---------------------------------|
5||---------0----------0-------------------------------------------|
6||----------------------------------------------------------------|

verse
1||------------------------------------------------------------------|
2||------------------------------------------------------------------|
3||-------------------6--5--4----------------------6--5--4-----------|
4||------------------6--5--4-34-------------------6--5--4--43--------|
5||----2-2122-212---4--3--2---------2-2122-212---4--3--2-------------|
6||-----4----4-----------------------4----4--------------------------|


chorus
1||------------------------------------------------------------------|
2||------------------------------------------------------------------|
3||--------7-5--75-7--------------75-75-7----------------------------|
4||--------7-5--75-7---45--78-5---75-75-7----------------------------|
5||--------5-3--53-5--5--------6--53-53-5--6-------------------------|
6||-----------------------------------------78-----------------------|

interlude
1||-------------------------------------------------------------------|
2||-------------------------------------------------------------------|
3||-------------------------------------------5-------7---------------|
4||------------------------------------------5-5-----7-7--------------|
5||-----------------------------------------3------5------------------|
6||---------5---8555555---57555555555855557---------------------------|

next chorus,verse

outro
1||-------------------------------------------------------------------------|
2||------------54-3--54--3--------------------------------------------------|
3||---------2----5-----5---4----2-------------------------------------------|
4||--------2---------------------23-----------------------------------------|
5||-------0--------------------------------------4-------4------------------|
6||---------------------------------43-1-0----030-30--030-30----------------|

1||-------------------------------------------------------------------------|
2||-------------------------------------------------------------------------|
3||-------------------------------------------------------------------------|
4||-------------------------------------------------------------------------|
5||-------------------------------------------------------------------------|
6||--------0023--0023-0023--0023--0023-0023--4467446744564456---------------|
not sure of this part..
next verse, chorus,end.

  Visit MetalTabs.com for more metal tablature

bottom separator

Contact Us | Privacy Policy | Disclaimer | Legal Notice
Copyright © 2001-2014 MetalTabs.com. All Rights Reserved.