top separator

Home

Forum

What's New

Submit a Tab

FAQ

Links

Contact Us

Link to Us

MetalTabs.com logo

Bands

0-9

A

B

C

D

E

F

G

H

I

J

K

L

M

N

O

P

Q

R

S

T

U

V

W

X

Y

Z

Search

What

Where
 

Darkness (DE) - "Faded Pictures" Guitar Tab

Plain Text Version
More Darkness (DE) Tabs

Hits: 2628
Rated: 1.27 out of 5 (33 votes)
Updated: 2007-04-11 22:20:30

 

By:

Arsenal_420

sendpm.gif

email.gif

Important note
We did our best to reach Darkness (DE) and ask for their permission to publish this tab. Unfortunately they did not respond to our requests or we could not find a way to contact them. This tab is available online until Darkness (DE) tells us to take it down.


#----------------------------------PLEASE NOTE---------------------------------#
#This file is the author's own work and represents their interpretation of the #
#song. You may only use this file for private study, scholarship, or research. #
#Unless specified otherwise, this is NOT an official tab from the band members.#
#------------------------------------------------------------------------------#

  Visit MetalTabs.com for more metal tablature
  
Band:  Darkness
Album: Death Squad
Song:  Faded Pictures

.  - palm mute           /  - slide up to
\  - slide down to       ~  - vibrato
h  - hammer on           b  - Bend
p  - pull off            Suffixes for bend
t  - tap                 f  - full bend    h - half bend
ph - pinched harmonic    q  - quarter bend t - tap bend
*  - see comment         ^  - Hold bend    r release bend
x  - Stuccatto           ~  - vibrato bend
,  - slight palm mute    () - ghost note, sustained note
"  - tremolo note        <> - Trill

Tuning E A D G B E


Intro / Riff A

Gtr. 1
|-------------------------------------------------------------|
|-------------------------------------------------------------|
|-------------------------------------------------------------|
|-5---------5---------5-----5-----5---------------------------|
|-3---------3---------3-----3-----3---------------------------|
|---0000000---0000000---000---000---0000000-------------------|
|   .......   .......   ...   ...   .......
|Gtr. 2
|-------------------------------------------------------------|
|-------------------------------------------------------------|
|-------------------------------------------------------------|
|-5---------5---------5-----5-----5---------------------------|
|-3---------3---------3-----3-----3---------------------------|
|-------------------------------------------------------------|


Gtr. 1
|-------------------------------------------------------------|
|-------------------------------------------------------------|
|-------------------------------------------------------------|
|-5---------5---------5-----5---------------------------------|
|-3---------3---------3-----3-----5-5-5-5--5------------------|
|---0000000---0000000---000---000-3-3-3-3--3------------------|
|   .......   .......   ...   ...
|Gtr. 2
|-------------------------------------------------------------|
|-------------------------------------------------------------|
|-------------------------------------------------------------|
|-5---------5---------5-----5---------------------------------|
|-3---------3---------3-----3-----5-5-5-5--5------------------|
|---------------------------------3-3-3-3--3------------------|

Riff B
|---------------------|
|---------------------|
|---------------------|
|---------------------|
|-5-------------5-5-7-|
|-3-00000000000-3-3-5-|
    ...........

|---------------------|
|---------------------|
|---------------------|
|---------------------|
|-5-------------5-5-7-|
|-3-00000000000-3-3-5-|
    ...........

|---------------------|
|---------------------|
|---------------------|
|---------------------|
|-5-------------5-5-7-|
|-3-00000000000-3-3-5-|
    ...........

|-----------------------|
|-----------------------|
|---------------5-4-5/7-|
|---------------x-x-x-x-|
|-5-------------3-2-3/5-|
|-3-00000000000---------|
    ...........

Riff C
|-------------------------------------------------------------|
|-------------------------------------------------------------|
|------5----5/7-5-4------------5----5-7-5-7-9-----------------|
|-2-----------------5----2------------------------------------|
|------3----3/5-3-2------------3----3-5-3-5-7-----------------|
|-0-----------------3----0------------------------------------|

|-------------------------------------------------------------|
|-------------------------------------------------------------|
|------5----5/7-5-4------------5----5-7-5-7-------------------|
|-2-----------------5----2------------------------------------|
|------3----3/5-3-2------------3----3-5-3-5-5-5-4-3-3---------|
|-0-----------------3----0------------------3-3-2-1-1---------|
                                            . . . . .

END

  Visit MetalTabs.com for more metal tablature

bottom separator

Contact Us | Privacy Policy | Disclaimer | Legal Notice
Copyright © 2001-2014 MetalTabs.com. All Rights Reserved.