top separator

Home

Forum

What's New

Submit a Tab

FAQ

Links

Contact Us

Link to Us

MetalTabs.com logo

Bands

0-9

A

B

C

D

E

F

G

H

I

J

K

L

M

N

O

P

Q

R

S

T

U

V

W

X

Y

Z

Search

What

Where
 

Cumgun - "Vaginale Composte" Guitar Tab

Plain Text Version
More Cumgun Tabs

Hits: 1922
Updated: 2007-06-24 23:34:04

 

By:

goatman

sendpm.gif

email.gif

Important note
This tab is available online because we obtained explicit permission from Cumgun or their label.


#----------------------------------PLEASE NOTE---------------------------------#
#This file is the author's own work and represents their interpretation of the #
#song. You may only use this file for private study, scholarship, or research. #
#Unless specified otherwise, this is NOT an official tab from the band members.#
#------------------------------------------------------------------------------#

  Visit MetalTabs.com for more metal tablature
  
Band:  (CUMGUN)
Album: (SUCK THE GUTS FROM MY SLUT)
Song:  (VAGINALE COMPOSTE)

Copyright (c)  (SELF RELEASED)

Transcribed By: (GOATMAN)
Email:          (VIRUS010891@AOL.COM)


.  - palm mute    <>  - pinch harmonic


Tuning: A standard

--------------------------------------------------------------------
--------------------------------------------------------------------
--------------------------------------------------------------------
--------------------------------------------------------------------
-3--3-3--6--5--3--3-3--6--5--3--3-3--6--5--3--3-3--2--3-------------
-1--1-1--4--3--1--1-1--4--3--1--1-1--4--3--1--1-1--0--1-------------
    . .           . .           . .           . .  .  .
                                                                   x4
|-------------------------------------------------------------------|
|.-----------------------------------------------------------------.|
|-------------------------------------------------------------------|
|-------------------------------------------------------------------|
|.-3-3-3-3-6-6-5-5-3-3-3-3-6-6-5-5-3-3-3-3-6-6-5-5-3-3-3-3--2--3---.|
|--1-1-1-1-4-4-3-3-1-1-1-1-4-4-3-3-1-1-1-1-4-4-3-3-1-1-1-1--0--1----|
   . . . .         . . . .         . . . .         . . . .  .  .
                                       (3rd-6th times play slower) x6
|-------------------------------------------------------------------|
|.-----------------------------------------------------------------.|
|-------------------------------------------------------------------|
|-------------------------------------------------------------------|
|.-2--3--2-2--3--2--3--2-2--3--2--3--2-2--3--2--3--2-2-------------.|
|--0--1--0-0--1--0--1--0-0--1--0--1--0-0--1--0--1--0-0-<1>~---------|
   .  .  . .  .  .  .  . .  .  .  .  . .  .  .  .  . .
              x4               x4             x4               x4
|--------------|----------------|--------------|----------------|----
|.------------.|.--------------.|.------------.|.--------------.|----
|--------------|----------------|--------------|----------------|----
|--4--8--5--7--|--4--8-8--5--7--|--4--8--5--7--|--4--8-8--5--7--|----
|.-2--6--3--5-.|.-2--6-6--3--5-.|.-2--6--3--5-.|.-2--6-6--3--5-.|-7--
|--2--6--3--5--|--2--6-6--3--5--|--2--6--3--5--|--2--6-6--3--5--|-5--
                  .  . .  .  .                    .  . .  .  .

  Visit MetalTabs.com for more metal tablature

bottom separator

Contact Us | Privacy Policy | Disclaimer | Legal Notice
Copyright © 2001-2014 MetalTabs.com. All Rights Reserved.