top separator

Home

Forum

What's New

Submit a Tab

FAQ

Links

Contact Us

Link to Us

MetalTabs.com logo

Bands

0-9

A

B

C

D

E

F

G

H

I

J

K

L

M

N

O

P

Q

R

S

T

U

V

W

X

Y

Z

Search

What

Where
 

Rompeprop - "Anal Sushi (Gut Cover)" Guitar Tab

Plain Text Version
More Rompeprop Tabs

Hits: 2422
Rated: 5.00 out of 5 (1 vote)
Updated: 2007-04-02 05:53:41

 

By:

goatman

sendpm.gif

email.gif

Important note
This tab is available online because we obtained explicit permission from Rompeprop or their label.


#----------------------------------PLEASE NOTE---------------------------------#
#This file is the author's own work and represents their interpretation of the #
#song. You may only use this file for private study, scholarship, or research. #
#Unless specified otherwise, this is NOT an official tab from the band members.#
#------------------------------------------------------------------------------#

  Visit MetalTabs.com for more metal tablature
  
Band:  (ROMPEPROP)
Album: (HELLCOCK'S PORNFLAKES)
Song:  (ANAL SUSHI(ORIGINAL RECIPE BY GUT))

Copyright (c)  (BIZARRE LEPROUS PRODUCTIONS) (2003)

Transcribed By: (GOATMAN)
Email:          (VIRUS010891@AOL.COM)


        ()  -sustained

Tuning: B STANDARD

|-------------------------------------------------------------------
|.------------------------------------------------------------------
|-------------------------------------------------------------------
|--------------------------8-8-8-8-------------------------8-8-8-8--
|.-7-7-7-7-7-7-7-7-7-7-7-7-6-6-6-6-7-7-7-7-7-7-7-7-7-7-7-7-6-6-6-6--
|--5-5-5-5-5-5-5-5-5-5-5-5---------5-5-5-5-5-5-5-5-5-5-5-5----------

                                                                  x2
-------------------------------------------------------------------|
------------------------------------------------------------------.|
-------------------------------------------------------------------|
-------------------------8-8-8-8--------------------------8---8----|
-7-7-7-7-7-7-7-7-7-7-7-7-6-6-6-6-7-7-7-7-7-7-7-7-7-7-7-7--6---6---.|
-5-5-5-5-5-5-5-5-5-5-5-5---------5-5-5-5-5-5-5-5-5-5-5-5-----------|

                                x2
|--------------------------------|-----------------------------------
|.------------------------------.|.----------------------------------
|--------------------------------|-----------------------------------
|-----------------------(9)-(8)--|--------------------------8-8-8-8--
|.-(7)---(10)-(9)-(7)---(7)-(6)-.|.-7-7-7-7-7-7-7-7-7-7-7-7-6-6-6-6--
|--(5)----(8)-(7)-(5)------------|--5-5-5-5-5-5-5-5-5-5-5-5----------


---------------------------------------------------------------------
---------------------------------------------------------------------
---------------------------------------------------------------------
-------------------------8-8-8-8-------------------------8-8-8-8-----
-7-7-7-7-7-7-7-7-7-7-7-7-6-6-6-6-7-7-7-7-7-7-7-7-7-7-7-7-6-6-6-6-----
-5-5-5-5-5-5-5-5-5-5-5-5---------5-5-5-5-5-5-5-5-5-5-5-5-------------

                                x2                               x2
---------------------------------|--------------------------------|-----
--------------------------------.|.------------------------------.|-----
---------------------------------|--------------------------------|-----
--------------------------8---8--|-----------------------(9)-(8)--|-----
-7-7-7-7-7-7-7-7-7-7-7-7--6---6-.|.-(7)---(10)-(9)-(7)---(7)-(6)-.|-(7)-
-5-5-5-5-5-5-5-5-5-5-5-5---------|--(5)----(8)-(7)-(5)------------|-(5)-

  Visit MetalTabs.com for more metal tablature

bottom separator

Contact Us | Privacy Policy | Disclaimer | Legal Notice
Copyright © 2001-2014 MetalTabs.com. All Rights Reserved.