top separator

Home

Forum

What's New

Submit a Tab

FAQ

Links

Contact Us

Link to Us

MuSpy.com

MetalTabs.com logo

Bands

0-9

A

B

C

D

E

F

G

H

I

J

K

L

M

N

O

P

Q

R

S

T

U

V

W

X

Y

Z

Search

What

Where
 

Napalm Death - "Armageddon X 7" Guitar Tab

Plain Text Version
More Napalm Death Tabs

Hits: 2108
Updated: 2007-04-02 05:48:59

 

By:

goatman

sendpm.gif

email.gif

Important note
This tab is available online because we obtained explicit permission from Napalm Death or their label.


#----------------------------------PLEASE NOTE---------------------------------#
#This file is the author's own work and represents their interpretation of the #
#song. You may only use this file for private study, scholarship, or research. #
#Unless specified otherwise, this is NOT an official tab from the band members.#
#------------------------------------------------------------------------------#

  Visit MetalTabs.com for more metal tablature
  
Band:  (NAPALM DEATH)
Album: (FEAR, EMPTINESS, DESPAIR)
Song:  (ARMEGEDDON X 7)

Copyright (c)  (EARACHE/COLOMBIA) (1994)

Transcribed By: (GOATMAN)
Email:          (VIRUS010891@AOL.COM)


.  - palm mute           "  - tremolo      /  - slide up

\  - slide down         <>  - natural harmonic    ()  - sustained note


Tuning: C#G#C#F#A#D#
                 x6                             x4
|-----------------|------------------------------|-------------------
|.---------------.|.----------------------------.|.------------------
|--(4)-(4)---(5)--|---------5"-4"---------5"-4"--|-------------------
|--(4)-(4)---(5)--|--4"-----------4"----4"-------|----------5--------
|.-(2)-(2)-0-(3)-.|.---2"3"---------2"3"--------.|.-4-4-3-4-3-4-4-4--
|----------0------|------------------------------|--4-4-3-4---4-4-4--
           .
                 x8
------------------|-----------------------------|-------------------
-----------------.|-----------------------------|.------------------
------------------|-----------------------------|-------------------
-----5------------|-----------------------------|-------------------
-3-4-3-4-4-4-3-4-.|-3/4--4\3--3/4--4\3--3/4--3--|.-3-4-4-4-4\3-3-4--
-3-4---4-4-4-3-4--|-3/4--4\3--3/4--4\3--3/4--3--|--3-4-4-4-4\3-3-4--
                                                   . . . .     . .
                 x4                                x4
------------------|---------------------------------|
-----------------.|.-------------------------------.|
------------------|---------------------------------|
------------------|---------------------------------|
-4-4-4-4-4-4-4\3-.|.-3/4-4-4\3-3-3/4-4-4\3-3-3/4-3-.|
-4-4-4-4-4-4-4\3--|--3/4-4-4\3-3-3/4-4-4\3-3-3/4-3--|
 . . . . . .             .     .     .     .
                                   x8
|-----------------------------------|-----------------------------
|.---------------------------------.|-----------------------------
|-----------------------------------|-----------------------------
|----------5-----------5------------|-----------------------------
|.-4-4-3-4-3-4-4-4-3-4-3-4-4-4-3-4-.|-3/4--4\3--3/4--4\3--3/4--3--
|--4-4-3-4---4-4-4-3-4---4-4-4-3-4--|-3/4--4\3--3/4--4\3--3/4--3--

                                   x4                                x4
|-----------------------------------|---------------------------------|
|.---------------------------------.|.-------------------------------.|
|-----------------------------------|---------------------------------|
|-----------------------------------|---------------------------------|
|.-3-4-4-4-4\3-3-4-4-4-4-4-4-4-4\3-.|.-3/4-4-4\3-3-3/4-4-4\3-3-3/4-3-.|
|--3-4-4-4-4\3-3-4-4-4-4-4-4-4-4\3--|--3/4-4-4\3-3-3/4-4-4\3-3-3/4-3--|
   . . . .     . . . . . . . .             .     .     .     .
                       x8                    x8                               x4
|-----------------------|---------------------|--------------------------------|
|.---------------------.|.-------------------.|.------------------------------.|
|-----------------------|---------------------|--------------------------------|
|----------<2>----------|---------------------|-----------------------4--------|
|.-<2>-----------------.|.-2------1----------.|.3-3-3-4-3-3-6-3-3-3-3-2-3-3--6.|
|-----00-0----00-0-0-0--|----00-0---00-0-0-0--|-3-3-3-4-3-3-6-3-3-3-3---3-3--6-|
      .. .    .. . . .       .. .   .. . . .
                       x8                    x8                               x4
|-----------------------|---------------------|--------------------------------|
|.---------------------.|.-------------------.|.------------------------------.|
|-----------------------|---------------------|--------------------------------|
|----------<2>----------|---------------------|-----------------------4--------|
|.-<2>-----------------.|.-2------1----------.|.3-3-3-4-3-3-6-3-3-3-3-2-3-3--6.|
|-----00-0----00-0-0-0--|----00-0---00-0-0-0--|-3-3-3-4-3-3-6-3-3-3-3---3-3--6-|
      .. .    .. . . .       .. .   .. . . .
                                     x4
|-------------------------------------|
|.-----------------------------------.|
|-------------------------------------|
|------------------------4------------|
|.-3-3-3-4-3-3-6-3-3-3-3-2-3-3--6----.|
|--3-3-3-4-3-3-6-3-3-3-3---3-3--6-----|
|                                     |
|                                     |
|-------------(13)"-------------------|
|.------------(x )"------------------.|
|-------------(10)"-------------------|
|-------------------------------------|
|.-----------------------------------.|
|-------------------------------------|

  Visit MetalTabs.com for more metal tablature

bottom separator

Contact Us | Privacy Policy | Disclaimer | Legal Notice
Copyright © 2001-2014 MetalTabs.com. All Rights Reserved.