top separator

Home

Forum

What's New

Submit a Tab

FAQ

Links

Contact Us

Link to Us

MetalTabs.com logo

Bands

0-9

A

B

C

D

E

F

G

H

I

J

K

L

M

N

O

P

Q

R

S

T

U

V

W

X

Y

Z

Search

What

Where
 

Severe Torture - "Sawn Off" Guitar Tab

Plain Text Version
More Severe Torture Tabs

Hits: 3053
Updated: 2007-04-02 05:31:42

 

By:

misantropic666

sendpm.gif

email.gif

Important note
This tab is available online because we obtained explicit permission from Severe Torture or their label.


#----------------------------------PLEASE NOTE---------------------------------#
#This file is the author's own work and represents their interpretation of the #
#song. You may only use this file for private study, scholarship, or research. #
#Unless specified otherwise, this is NOT an official tab from the band members.#
#------------------------------------------------------------------------------#

  Visit MetalTabs.com for more metal tablature
  
Band:  Severe Torture
Album: Fall of the despised
Song:  Sawn off

Copyright (c)  Metal Blade Records 2006
Version 1.0 - 25-03-2007

Transcribed By: Misantropic666
Email:          Misantropic666@hotmail.com


.  - palm mute           /  - slide up to
\  - slide down to       ~  - vibrato
h  - hammer on           b  - Bend
p  - pull off            Suffixes for bend
t  - tap                 f  - full bend    h - half bend
ph - pinched harmonic    q  - quarter bend t - tap bend
*  - see comment         ^  - Hold bend    r release bend
x  - Stuccatto           ~  - vibrato bend
,  - slight palm mute    () - ghost note, sustained note
"  - tremolo note        <> - Trill

Tuning: D G C F A D

Riff 1  Both Guitars

|-------------------------------------------------|
|-------------------------------------------------|
|-------------------------------------------------|
|---------5h8---------5h8---------5h8-------------|
|-----4-7---------4-7---------4-7-----6---5---8---|
|-3-6---------3-6---------3-6---------7---6---9---|
  . . . .     . . . .     . . . .

Riff 2  Both guitars

|-----------------------------------------------------|
|-----------------------------------------------------|
|-----------------------------------------------------|
|-----------------------------------------------------|
|-----------------------------------------4-7-4h7p4---|
|-444-333-333-444-333-333-444-333-333-3-6-------------|
  ... ... ... ... ... ... ... ... ... . . . .

Last time
|-----------------------------------------------------|
|-----------------------------------------------------|
|-----------------------------------------------------|
|-----------------------------------------------5h8---|
|-----------------------------4-7-4h7p4-----4-7-------|
|-444-333-333-444-333-333-3-6-----------3-6-----------|
  ... ... ... ... ... ... . . . .       . . . .

Riff 3 Both guitars 1st and 2nd time

|----------------------------------------------------|
|----------------------------------------------------|
|----------------------------------------------------|
|----------------------------------------------------|
|----------------------------------------------------|
|-6---00006---5---00005---3---33335555666655553333---|
      ....        ....        ....................

3rd and 4th time Guitar 2 harmonizes:

|----------------------------------------------------|
|----------------------------------------------------|
|----------------------------------------------------|
|----------------------------------------------------|
|-5-------5---4-------4---2--------------------------|
|-----0000--------0000--------33335555666655553333---|
      ....        ....        ....................

Riff 4  Guitar 1

|--------------------------------------------|
|--------------------------------------------|
|--------------------------------------------|
|--------------------------------------------|
|-2-1--------2-1-----1-----------4-4-3-3-----|
|-3-2-000000-3-2-000-2-000-4-000-5-5-4-4-0---|
      ......     ...   ...   ...         .

Guitar 2

|--------------------------------------------|
|--------------------------------------------|
|--------------------------------------------|
|--------------------------6-----------------|
|-2-1--------2-1-----1-----------4-4-3-3-----|
|-3-2-000000-3-2-000-2-000---000-5-5-4-4-0---|
      ......     ...   ...   ...         .

Riff 5  Both Guitars

|-----------------------------------|
|-----------------------------------|
|-----------------------------------|
|---------5h8---------5h8-----6h9---|
|-----------------------------------|
|-3-6-3-6-----3-6-3-6-----4-7-------|
  . . . .     . . . .     . .

Song Structure

Riff 1          4x
Riff 2          4x
Riff 1          4x
Riff 2          8x
Riff 3          4x
Riff 2          4x
Riff 3          4x
Riff 4          6x
Riff 5          12x
Riff 1          4x
Riff 2          4x
Riff 3          4x
Riff 2          8x

END

  Visit MetalTabs.com for more metal tablature

bottom separator

Contact Us | Privacy Policy | Disclaimer | Legal Notice
Copyright © 2001-2014 MetalTabs.com. All Rights Reserved.