top separator

Home

Forum

What's New

Submit a Tab

FAQ

Links

Contact Us

Link to Us

MuSpy.com

MetalTabs.com logo

Bands

0-9

A

B

C

D

E

F

G

H

I

J

K

L

M

N

O

P

Q

R

S

T

U

V

W

X

Y

Z

Search

What

Where
 

Atheist - "Enthralled In Essence" Bass Tab

Plain Text Version
More Atheist Tabs

Hits: 2684
Rated: 3.00 out of 5 (2 votes)
Updated: 2007-04-11 22:59:28

 

By:

epitaph

sendpm.gif

email.gif

Important note
This tab is available online because we obtained explicit permission from Atheist or their label.


#----------------------------------PLEASE NOTE---------------------------------#
#This file is the author's own work and represents their interpretation of the #
#song. You may only use this file for private study, scholarship, or research. #
#Unless specified otherwise, this is NOT an official tab from the band members.#
#------------------------------------------------------------------------------#

  Visit MetalTabs.com for more metal tablature
  
Band: Atheist
Album: Unquestionable Presence
Song: Enthralled in Essence

Copyright (c) Active Records 1991 / Relapse Records 2005
Version 2.0 - 20th of March, 2007 - 9th of April, 2007 (Latest corrections)

Transcribed By: Lassi Nurminen (aka, epitaph)
Email: Gaborik10@hotmail.com / Gaborik@welho.com

EADG (From low to high)

0:00
|----------------------------------------------------|
|----------------------------------------------------|
|----------------------------------------------------|
|-000-000-0-0--000-000-0-0--000-000-0-0--000-000-0-0-|

0:05
|-----------------9-------9---------------------------|
|---------9-999-9---9---9---------------------5-------| Improvise around
|-7-777-7-------------7---------------5-555-5---5-5---| these notes..
|-----------------------------3-333-3---------------3-|

0:17
|----------------------------------------------------9-|
|------------------------------------------------------|
|--------------------------------------------------7---|
|-0-0-000-0-0--0-0-000-0-0--0-0-000-0-0--0-0-000-0-----|

|--------------------------------------------------|
|--------------------------------------------------|
|-----------7------------7------------7------------|
|-0-0-000-0----0-0-000-0----0-0-000-0----0-0-000-0-|

0:28
|---------------------------------------------------------------|
|---------------------------------------------------------------| Twice
|-0h1p0-----------0h1p0-----------0h1p0-----------0h1p0-------5-|
|-------1-0-1-0-3-------1-0-1-0-3-------1-0-1-0-3-------1-0-1---|

0:39
|------------------|
|------------------|
|-2---0-2-5-0-2-3--|
|---3--------------|

0:40
|-------------------------------------9-10----------10-9-|
|---------9-10----------10-9-----------------------------|
|-777-777-------666-666-------555-555-------444-444------|
|--------------------------------------------------------|

|-------------------------------------10-9----------9-10-|
|---------10-9----------9-10-----------------------------|
|-777-777-------666-666-------555-555-------555-555------|
|--------------------------------------------------------|

|---------10-9----------------------
|--------------10-9---------9-------
|-7-777-7-----------6-666-6---7-----
|-------------------------------8-7-
Continues:
----------------------------------| Improvise..
---------10-10-9----------10-10-7-| As you might guess, its pretty hard
-5-555-5----------4-444-4---------| for me to hear what Tony played here
----------------------------------|

|---------------------------------10-9--------9-10-|
|---------10-9--------9-10-------------------------|
|-7-777-7-------66666-------55555-------44444------|
|--------------------------------------------------|

1:00
|---------|
|---------|
|-1/2-----|
|-----1/2-|

1:02
|--------------------------9----------------------5*-|
|----------------------------------------------------| *Natural Harmonic
|------------------------7---------------------------|
|-000-000-0-0--0-0-000-0-----000-000-0-0--0-0-000----|

|--------------------------------------------------|
|--------------------------------------------------|
|--------------------------------------------------|
|-000-000-0-0--0-0-000-0-0--0-0-000-0-0--0-0-000-0-|

1:13
|-------------10------------------------10-----13-12-15-|
|-------8-0-9----9-0-5-0----------8-0-9----9-0----------|
|-7-777------------------2--7-777-----------------------|
|-------------------------------------------------------|

|-------------10--------------------------------|
|-------8-0-9----9-0-5-0----------8-0-9---------|
|-7-777------------------2--7-777-------1-2-----|
|-------------------------------------------1-2-|

|-------------10------------------------10-----13-12-15-|
|-------8-0-9----9-0-5-0----------8-0-9----9-0----------|
|-7-777------------------2--7-777-----------------------|
|-------------------------------------------------------|

|-------------10-----------------------------------|
|-------8-0-9----9-0-5-0----------8-0-9------------|
|-7-777------------------2--7-777-------2----5-0-0-|
|-----------------------------------------2--------|

1:30
|---------------------------------|
|---------------------------------| Three
|-1/2------55-0-000-1/2-----5-000-| Times
|-----1/2---------------1/2-------|

1:41
|---------------|
|---------------|
|-7---0---5---7-|
|---------3---5-|

1:47
|---------9------------------------------------|
|-------9------------5----------4--------------|
|-7-777------------5----------4----------------|
|------------3-333------2-222------5-555-5-5-5-|

1:53
I cant really hear what kind of finger patterns
Tony used for the right hand, but here's how I'd play the whole section:
|----------------------------------------------------|
|----------------------------------------------------|
|----------------------------------------------------|
|-0-000-0-0-0--3-333-3-3-3--2-222-2-2-2--5-555-5-5-5-|

|----------------------------------------------------|
|----------------------------------------------------|
|----------------------------------------------------|
|-0-000-0-0-0--5-555-5-5-5--3-333-3-3-3--2-222-2-2-2-|

|---------------------------------------|
|---------------------------------------|
|---------------------------------------|
|-0-000-0---3-333-3---2-222-2---5-555-5-|

|-----------------------------------------------------------|
|-----------------------------------------------------------|
|--------------------------------------------------------/7-|
|-0-000-0---5-555-5---3-3-3-3-3-3-3-3-2-2-2-2-3-3-2-2-0-----|

2:18
|--------------------------------------------------------9-|
|----------------------------------------------------------|
|-----------------7h8-7-6h7----------------------7h8-7-6---|
|-000-000-000-000------------000-000-000-000-000-----------|

|----------------------------------------------------------|
|----------------------------------------------------------|
|-----------------7h8-7-6h7----------------------7h8-7-6h7-|
|-000-000-000-000------------000-000-000-000-000-----------|

|---------------------------|
|---------------------------|
|-----------------7h8-7-5---|
|-000-000-000-000---------6-|

2:37
|---------------------------------------------------------------|
|---------------------------------------------------------------| Twice
|-0h1p0-----------0h1p0-----------0h1p0-----------0h1p0-------5-|
|-------1-0-1-0-3-------1-0-1-0-3-------1-0-1-0-3-------1-0-1---|

2:49
|--------------------------9------------------------|
|---------------------------------------------------|
|------------------------7--------------------------|
|-000-000-0-0--0-0-000-0-----000-000-0-0--0-0-000-0-|

2:54
|-------u--s--e---------|
|------y--o--u--r-------|
|-i-m-a-g-i-n-a-t-i-o-n-|
|------h--e--r--e-------|

2:57
|---------------------------------------------------------------|
|---------------------9-9-9-9-8-8-8-8---------------------------|
|-7-7-7-7-10-10-10-10-----------------7-7-7-7-5-5-5-5-8-8-8-8---|
|-------------------------------------------------------------8-|

|---------------------------------------------------------------|
|---------------------------------------------------------------|
|---------------------9-9-9-9-8-8-8-8---------------------------|
|-7-7-7-7-10-10-10-10-----------------7-7-7-7-5-5-5-5-8-8-8-8-1-|

3:09
|-----------------|
|-----------------| Twice
|-7-5-7-8-7-5-7-5-|
|-----------------|

|-----------------|
|-------8---------| Twice
|-7-5-7---7-5-7-5-|
|-----------------|

|-----------------|
|-----------------| Twice
|-7-5-7-8-7-5-7-5-|
|-----------------|

|-----------------|
|-------8---------| Twice
|-7-5-7---7-5-7-5-|
|-----------------|

3:20
|---------------------------------------------------------------|
|---------------------9-9-9-9-8-8-8-8---------------------------|
|-7-7-7-7-10-10-10-10-----------------7-7-7-7-5-5-5-5-8-8-8-8---|
|-------------------------------------------------------------8-|

|---------------------------------------------------------------|
|---------------------------------------------------------------|
|---------------------9-9-9-9-8-8-8-8---------------------------|
|-7-7-7-7-10-10-10-10-----------------7-7-7-7-5-5-5-5-8-8-8-8-1-|

3:32
Finish the song like this:
|------------|
|-----3----3-|
|---3--------|
|-1----------|

Cheers for watching!

  Visit MetalTabs.com for more metal tablature

bottom separator

Contact Us | Privacy Policy | Disclaimer | Legal Notice
Copyright © 2001-2014 MetalTabs.com. All Rights Reserved.